  0
SECTION
  2
HEADER
  9
$ACADVER
  1
AC1021
  9
$ACADMAINTVER
 70
    25
  9
$DWGCODEPAGE
  3
UNDEFINED
  9
$INSBASE
 10
0.0
 20
0.0
 30
0.0
  9
$EXTMIN
 10
1.000000000000000E+20
 20
1.000000000000000E+20
 30
1.000000000000000E+20
  9
$EXTMAX
 10
-1.000000000000000E+20
 20
-1.000000000000000E+20
 30
-1.000000000000000E+20
  9
$LIMMIN
 10
0.0
 20
0.0
  9
$LIMMAX
 10
12.0
 20
9.0
  9
$ORTHOMODE
 70
     0
  9
$REGENMODE
 70
     1
  9
$FILLMODE
 70
     1
  9
$QTEXTMODE
 70
     0
  9
$MIRRTEXT
 70
     1
  9
$LTSCALE
 40
1.0
  9
$ATTMODE
 70
     1
  9
$TEXTSIZE
 40
0.2
  9
$TRACEWID
 40
0.05
  9
$TEXTSTYLE
  7
Standard
  9
$CLAYER
  8
0
  9
$CELTYPE
  6
ByLayer
  9
$CECOLOR
 62
   256
  9
$CELTSCALE
 40
1.0
  9
$DISPSILH
 70
     0
  9
$DIMSCALE
 40
1.0
  9
$DIMASZ
 40
0.18
  9
$DIMEXO
 40
0.0625
  9
$DIMDLI
 40
0.38
  9
$DIMRND
 40
0.0
  9
$DIMDLE
 40
0.0
  9
$DIMEXE
 40
0.18
  9
$DIMTP
 40
0.0
  9
$DIMTM
 40
0.0
  9
$DIMTXT
 40
0.18
  9
$DIMCEN
 40
0.09
  9
$DIMTSZ
 40
0.0
  9
$DIMTOL
 70
     0
  9
$DIMLIM
 70
     0
  9
$DIMTIH
 70
     1
  9
$DIMTOH
 70
     1
  9
$DIMSE1
 70
     0
  9
$DIMSE2
 70
     0
  9
$DIMTAD
 70
     0
  9
$DIMZIN
 70
     0
  9
$DIMBLK
  1

  9
$DIMASO
 70
     1
  9
$DIMSHO
 70
     1
  9
$DIMPOST
  1

  9
$DIMAPOST
  1

  9
$DIMALT
 70
     0
  9
$DIMALTD
 70
     2
  9
$DIMALTF
 40
25.4
  9
$DIMLFAC
 40
1.0
  9
$DIMTOFL
 70
     0
  9
$DIMTVP
 40
0.0
  9
$DIMTIX
 70
     0
  9
$DIMSOXD
 70
     0
  9
$DIMSAH
 70
     0
  9
$DIMBLK1
  1

  9
$DIMBLK2
  1

  9
$DIMSTYLE
  2
Standard
  9
$DIMCLRD
 70
     0
  9
$DIMCLRE
 70
     0
  9
$DIMCLRT
 70
     0
  9
$DIMTFAC
 40
1.0
  9
$DIMGAP
 40
0.09
  9
$DIMJUST
 70
     0
  9
$DIMSD1
 70
     0
  9
$DIMSD2
 70
     0
  9
$DIMTOLJ
 70
     1
  9
$DIMTZIN
 70
     0
  9
$DIMALTZ
 70
     0
  9
$DIMALTTZ
 70
     0
  9
$DIMUPT
 70
     0
  9
$DIMDEC
 70
     4
  9
$DIMTDEC
 70
     4
  9
$DIMALTU
 70
     2
  9
$DIMALTTD
 70
     2
  9
$DIMTXSTY
  7
Standard
  9
$DIMAUNIT
 70
     0
  9
$DIMADEC
 70
     0
  9
$DIMALTRND
 40
0.0
  9
$DIMAZIN
 70
     0
  9
$DIMDSEP
 70
    46
  9
$DIMATFIT
 70
     3
  9
$DIMFRAC
 70
     0
  9
$DIMLDRBLK
  1

  9
$DIMLUNIT
 70
     2
  9
$DIMLWD
 70
    -2
  9
$DIMLWE
 70
    -2
  9
$DIMTMOVE
 70
     0
  9
$DIMFXL
 40
1.0
  9
$DIMFXLON
 70
     0
  9
$DIMJOGANG
 40
0.7853981633974483
  9
$DIMTFILL
 70
     0
  9
$DIMTFILLCLR
 70
     0
  9
$DIMARCSYM
 70
     0
  9
$DIMLTYPE
  6

  9
$DIMLTEX1
  6

  9
$DIMLTEX2
  6

  9
$LUNITS
 70
     2
  9
$LUPREC
 70
     4
  9
$SKETCHINC
 40
0.1
  9
$FILLETRAD
 40
0.5
  9
$AUNITS
 70
     0
  9
$AUPREC
 70
     0
  9
$MENU
  1
.
  9
$ELEVATION
 40
0.0
  9
$PELEVATION
 40
0.0
  9
$THICKNESS
 40
0.0
  9
$LIMCHECK
 70
     0
  9
$CHAMFERA
 40
0.5
  9
$CHAMFERB
 40
0.5
  9
$CHAMFERC
 40
1.0
  9
$CHAMFERD
 40
0.0
  9
$SKPOLY
 70
     0
  9
$TDCREATE
 40
2458355.596238426
  9
$TDUCREATE
 40
2458355.554571759
  9
$TDUPDATE
 40
2458355.596238426
  9
$TDUUPDATE
 40
2458355.554571759
  9
$TDINDWG
 40
0.0000000116
  9
$TDUSRTIMER
 40
0.0000000116
  9
$USRTIMER
 70
     1
  9
$ANGBASE
 50
0.0
  9
$ANGDIR
 70
     0
  9
$PDMODE
 70
     0
  9
$PDSIZE
 40
0.0
  9
$PLINEWID
 40
0.0
  9
$SPLFRAME
 70
     0
  9
$SPLINETYPE
 70
     6
  9
$SPLINESEGS
 70
     8
  9
$HANDSEED
  5
93
  9
$SURFTAB1
 70
     6
  9
$SURFTAB2
 70
     6
  9
$SURFTYPE
 70
     6
  9
$SURFU
 70
     6
  9
$SURFV
 70
     6
  9
$UCSBASE
  2

  9
$UCSNAME
  2

  9
$UCSORG
 10
0.0
 20
0.0
 30
0.0
  9
$UCSXDIR
 10
1.0
 20
0.0
 30
0.0
  9
$UCSYDIR
 10
0.0
 20
1.0
 30
0.0
  9
$UCSORTHOREF
  2

  9
$UCSORTHOVIEW
 70
     0
  9
$UCSORGTOP
 10
0.0
 20
0.0
 30
0.0
  9
$UCSORGBOTTOM
 10
0.0
 20
0.0
 30
0.0
  9
$UCSORGLEFT
 10
0.0
 20
0.0
 30
0.0
  9
$UCSORGRIGHT
 10
0.0
 20
0.0
 30
0.0
  9
$UCSORGFRONT
 10
0.0
 20
0.0
 30
0.0
  9
$UCSORGBACK
 10
0.0
 20
0.0
 30
0.0
  9
$PUCSBASE
  2

  9
$PUCSNAME
  2

  9
$PUCSORG
 10
0.0
 20
0.0
 30
0.0
  9
$PUCSXDIR
 10
1.0
 20
0.0
 30
0.0
  9
$PUCSYDIR
 10
0.0
 20
1.0
 30
0.0
  9
$PUCSORTHOREF
  2

  9
$PUCSORTHOVIEW
 70
     0
  9
$PUCSORGTOP
 10
0.0
 20
0.0
 30
0.0
  9
$PUCSORGBOTTOM
 10
0.0
 20
0.0
 30
0.0
  9
$PUCSORGLEFT
 10
0.0
 20
0.0
 30
0.0
  9
$PUCSORGRIGHT
 10
0.0
 20
0.0
 30
0.0
  9
$PUCSORGFRONT
 10
0.0
 20
0.0
 30
0.0
  9
$PUCSORGBACK
 10
0.0
 20
0.0
 30
0.0
  9
$USERI1
 70
     0
  9
$USERI2
 70
     0
  9
$USERI3
 70
     0
  9
$USERI4
 70
     0
  9
$USERI5
 70
     0
  9
$USERR1
 40
0.0
  9
$USERR2
 40
0.0
  9
$USERR3
 40
0.0
  9
$USERR4
 40
0.0
  9
$USERR5
 40
0.0
  9
$WORLDVIEW
 70
     1
  9
$SHADEDGE
 70
     3
  9
$SHADEDIF
 70
    70
  9
$TILEMODE
 70
     1
  9
$MAXACTVP
 70
    64
  9
$PINSBASE
 10
0.0
 20
0.0
 30
0.0
  9
$PLIMCHECK
 70
     0
  9
$PEXTMIN
 10
1.000000000000000E+20
 20
1.000000000000000E+20
 30
1.000000000000000E+20
  9
$PEXTMAX
 10
-1.000000000000000E+20
 20
-1.000000000000000E+20
 30
-1.000000000000000E+20
  9
$PLIMMIN
 10
0.0
 20
0.0
  9
$PLIMMAX
 10
12.0
 20
9.0
  9
$UNITMODE
 70
     0
  9
$VISRETAIN
 70
     1
  9
$PLINEGEN
 70
     0
  9
$PSLTSCALE
 70
     1
  9
$TREEDEPTH
 70
  3020
  9
$CMLSTYLE
  2
Standard
  9
$CMLJUST
 70
     0
  9
$CMLSCALE
 40
1.0
  9
$PROXYGRAPHICS
 70
     1
  9
$MEASUREMENT
 70
     0
  9
$CELWEIGHT
370
    -1
  9
$ENDCAPS
280
     0
  9
$JOINSTYLE
280
     0
  9
$LWDISPLAY
290
     1
  9
$INSUNITS
 70
     1
  9
$HYPERLINKBASE
  1

  9
$STYLESHEET
  1

  9
$XEDIT
290
     1
  9
$CEPSNTYPE
380
     0
  9
$PSTYLEMODE
290
     1
  9
$FINGERPRINTGUID
  2
{A4A34253-8D08-1333-AC93-86A462E419F1}
  9
$VERSIONGUID
  2
{FAEB1C32-E019-11D5-929B-00C0DF256EC4}
  9
$EXTNAMES
290
     1
  9
$PSVPSCALE
 40
0.0
  9
$OLESTARTUP
290
     0
  9
$SORTENTS
280
   127
  9
$INDEXCTL
280
     0
  9
$HIDETEXT
280
     1
  9
$XCLIPFRAME
290
     0
  9
$HALOGAP
280
     0
  9
$OBSCOLOR
 70
   257
  9
$OBSLTYPE
280
     0
  9
$INTERSECTIONDISPLAY
280
     0
  9
$INTERSECTIONCOLOR
 70
   257
  9
$DIMASSOC
280
     2
  9
$PROJECTNAME
  1

  9
$CAMERADISPLAY
290
     0
  9
$LENSLENGTH
 40
50.0
  9
$CAMERAHEIGHT
 40
0.0
  9
$STEPSPERSEC
 40
2.0
  9
$STEPSIZE
 40
6.0
  9
$3DDWFPREC
 40
2.0
  9
$PSOLWIDTH
 40
0.25
  9
$PSOLHEIGHT
 40
4.0
  9
$LOFTANG1
 40
1.570796326794897
  9
$LOFTANG2
 40
1.570796326794897
  9
$LOFTMAG1
 40
0.0
  9
$LOFTMAG2
 40
0.0
  9
$LOFTPARAM
 70
     7
  9
$LOFTNORMALS
280
     1
  9
$LATITUDE
 40
37.795
  9
$LONGITUDE
 40
-122.394
  9
$NORTHDIRECTION
 40
0.0
  9
$TIMEZONE
 70
 -8000
  9
$LIGHTGLYPHDISPLAY
280
     1
  9
$TILEMODELIGHTSYNCH
280
     1
  9
$CMATERIAL
347
3C
  9
$SOLIDHIST
280
     1
  9
$SHOWHIST
280
     1
  9
$DWFFRAME
280
     2
  9
$DGNFRAME
280
     2
  9
$REALWORLDSCALE
290
     1
  9
$INTERFERECOLOR
 62
   256
  9
$CSHADOW
280
     0
  9
$SHADOWPLANELOCATION
 40
0.0
  0
ENDSEC
  0
SECTION
  2
CLASSES
  0
CLASS
  1
ACDBDICTIONARYWDFLT
  2
AcDbDictionaryWithDefault
  3
ObjectDBX Classes
 90
        0
 91
        4
280
     0
281
     0
  0
CLASS
  1
VISUALSTYLE
  2
AcDbVisualStyle
  3
ObjectDBX Classes
 90
     4095
 91
        4
280
     0
281
     0
  0
CLASS
  1
MATERIAL
  2
AcDbMaterial
  3
ObjectDBX Classes
 90
     1153
 91
        4
280
     0
281
     0
  0
CLASS
  1
SUN
  2
AcDbSun
  3
SCENEOE
 90
     1024
 91
        4
280
     0
281
     0
  0
ENDSEC
  0
SECTION
  2
TABLES
  0
TABLE
  2
VPORT
  5
8
330
0
100
AcDbSymbolTable
 70
     1
  0
VPORT
  5
29
330
8
100
AcDbSymbolTableRecord
100
AcDbViewportTableRecord
  2
*Active
 70
     0
 10
0.0
 20
0.0
 11
1.0
 21
1.0
 12
0.0
 22
0.0
 13
0.0
 23
0.0
 14
0.5
 24
0.5
 15
0.5
 25
0.5
 16
0.0
 26
0.0
 36
1.0
 17
293.8502698388086
 27
95.53493711156226
 37
0.0
 40
30.88040011445224
 41
11.19048028367421
 42
50.0
 43
0.0
 44
0.0
 50
0.0
 51
0.0
 71
     0
 72
   100
 73
     1
 74
     3
 75
     0
 76
     0
 77
     0
 78
     0
281
     0
 65
     1
110
0.0
120
0.0
130
0.0
111
1.0
121
0.0
131
0.0
112
0.0
122
1.0
132
0.0
 79
     0
146
0.0
 60
     3
 61
     5
292
     1
282
     1
141
0.0
142
0.0
 63
   250
361
3F
  0
ENDTAB
  0
TABLE
  2
LTYPE
  5
5
330
0
100
AcDbSymbolTable
 70
     1
  0
LTYPE
  5
14
330
5
100
AcDbSymbolTableRecord
100
AcDbLinetypeTableRecord
  2
ByBlock
 70
     0
  3

 72
    65
 73
     0
 40
0.0
  0
LTYPE
  5
15
330
5
100
AcDbSymbolTableRecord
100
AcDbLinetypeTableRecord
  2
ByLayer
 70
     0
  3

 72
    65
 73
     0
 40
0.0
  0
LTYPE
  5
16
330
5
100
AcDbSymbolTableRecord
100
AcDbLinetypeTableRecord
  2
Continuous
 70
     0
  3
Solid line
 72
    65
 73
     0
 40
0.0
  0
ENDTAB
  0
TABLE
  2
LAYER
  5
2
330
0
100
AcDbSymbolTable
 70
     2
  0
LAYER
  5
10
330
2
100
AcDbSymbolTableRecord
100
AcDbLayerTableRecord
  2
0
 70
     0
 62
     7
  6
Continuous
370
    -3
390
F
347
3E
  0
LAYER
  5
40
330
2
100
AcDbSymbolTableRecord
100
AcDbLayerTableRecord
  2
Ebene 1
 70
     0
 62
     7
  6
Continuous
370
    -3
390
F
347
3E
  0
ENDTAB
  0
TABLE
  2
STYLE
  5
3
330
0
100
AcDbSymbolTable
 70
     1
  0
STYLE
  5
11
330
3
100
AcDbSymbolTableRecord
100
AcDbTextStyleTableRecord
  2
Standard
 70
     0
 40
0.0
 41
1.0
 50
0.0
 71
     0
 42
0.2
  3
txt
  4

  0
ENDTAB
  0
TABLE
  2
VIEW
  5
6
330
0
100
AcDbSymbolTable
 70
     0
  0
ENDTAB
  0
TABLE
  2
UCS
  5
7
330
0
100
AcDbSymbolTable
 70
     0
  0
ENDTAB
  0
TABLE
  2
APPID
  5
9
330
0
100
AcDbSymbolTable
 70
     1
  0
APPID
  5
12
330
9
100
AcDbSymbolTableRecord
100
AcDbRegAppTableRecord
  2
ACAD
 70
     0
  0
ENDTAB
  0
TABLE
  2
DIMSTYLE
  5
A
330
0
100
AcDbSymbolTable
 70
     1
100
AcDbDimStyleTable
  0
DIMSTYLE
105
27
330
A
100
AcDbSymbolTableRecord
100
AcDbDimStyleTableRecord
  2
Standard
 70
     0
178
     0
340
11
  0
ENDTAB
  0
TABLE
  2
BLOCK_RECORD
  5
1
330
0
100
AcDbSymbolTable
 70
     1
  0
BLOCK_RECORD
  5
1F
330
1
100
AcDbSymbolTableRecord
100
AcDbBlockTableRecord
  2
*Model_Space
340
22
 70
     0
280
     1
281
     0
  0
BLOCK_RECORD
  5
1B
330
1
100
AcDbSymbolTableRecord
100
AcDbBlockTableRecord
  2
*Paper_Space
340
1E
 70
     0
280
     1
281
     0
  0
BLOCK_RECORD
  5
23
330
1
100
AcDbSymbolTableRecord
100
AcDbBlockTableRecord
  2
*Paper_Space0
340
26
 70
     0
280
     1
281
     0
  0
ENDTAB
  0
ENDSEC
  0
SECTION
  2
BLOCKS
  0
BLOCK
  5
20
330
1F
100
AcDbEntity
  8
0
100
AcDbBlockBegin
  2
*Model_Space
 70
     0
 10
0.0
 20
0.0
 30
0.0
  3
*Model_Space
  1

  0
ENDBLK
  5
21
330
1F
100
AcDbEntity
  8
0
100
AcDbBlockEnd
  0
BLOCK
  5
1C
330
1B
100
AcDbEntity
 67
     1
  8
0
100
AcDbBlockBegin
  2
*Paper_Space
 70
     0
 10
0.0
 20
0.0
 30
0.0
  3
*Paper_Space
  1

  0
ENDBLK
  5
1D
330
1B
100
AcDbEntity
 67
     1
  8
0
100
AcDbBlockEnd
  0
BLOCK
  5
24
330
23
100
AcDbEntity
  8
0
100
AcDbBlockBegin
  2
*Paper_Space0
 70
     0
 10
0.0
 20
0.0
 30
0.0
  3
*Paper_Space0
  1

  0
ENDBLK
  5
25
330
23
100
AcDbEntity
  8
0
100
AcDbBlockEnd
  0
ENDSEC
  0
SECTION
  2
ENTITIES
  0
SPLINE
  5
41
330
1F
100
AcDbEntity
  8
Ebene 1
 62
   250
370
    35
100
AcDbSpline
210
0.0
220
0.0
230
1.0
 70
    11
 71
     3
 72
   101
 73
    97
 74
     0
 42
0.0000000001
 43
0.0000000001
 12
1.0
 22
0.0
 32
0.0
 13
1.0
 23
0.0
 33
0.0
 40
0.0
 40
0.0
 40
0.0
 40
0.0
 40
1.0
 40
1.0
 40
1.0
 40
2.0
 40
2.0
 40
2.0
 40
3.0
 40
3.0
 40
3.0
 40
4.0
 40
4.0
 40
4.0
 40
5.0
 40
5.0
 40
5.0
 40
6.0
 40
6.0
 40
6.0
 40
7.0
 40
7.0
 40
7.0
 40
8.0
 40
8.0
 40
8.0
 40
9.0
 40
9.0
 40
9.0
 40
10.0
 40
10.0
 40
10.0
 40
11.0
 40
11.0
 40
11.0
 40
12.0
 40
12.0
 40
12.0
 40
13.0
 40
13.0
 40
13.0
 40
14.0
 40
14.0
 40
14.0
 40
15.0
 40
15.0
 40
15.0
 40
16.0
 40
16.0
 40
16.0
 40
17.0
 40
17.0
 40
17.0
 40
18.0
 40
18.0
 40
18.0
 40
19.0
 40
19.0
 40
19.0
 40
20.0
 40
20.0
 40
20.0
 40
21.0
 40
21.0
 40
21.0
 40
22.0
 40
22.0
 40
22.0
 40
23.0
 40
23.0
 40
23.0
 40
24.0
 40
24.0
 40
24.0
 40
25.0
 40
25.0
 40
25.0
 40
26.0
 40
26.0
 40
26.0
 40
27.0
 40
27.0
 40
27.0
 40
28.0
 40
28.0
 40
28.0
 40
29.0
 40
29.0
 40
29.0
 40
30.0
 40
30.0
 40
30.0
 40
31.0
 40
31.0
 40
31.0
 40
32.0
 40
32.0
 40
32.0
 40
32.0
 10
302.0432103497913
 20
95.8580453322353
 30
0.0
 10
302.6282217237553
 20
94.9323564669627
 30
0.0
 10
302.9203569940801
 20
93.83165455059951
 30
0.0
 10
302.9203569940801
 20
92.55283513878047
 30
0.0
 10
302.9203569940801
 20
91.00082462281999
 30
0.0
 10
302.5500108924173
 20
89.52804799372699
 30
0.0
 10
301.8062142447264
 20
88.13517775574411
 30
0.0
 10
300.0202767902895
 20
84.75725783766221
 30
0.0
 10
296.6892079863833
 20
83.06847538074663
 30
0.0
 10
291.812655055239
 20
83.06847538074663
 30
0.0
 10
288.6721215242495
 20
83.06847538074663
 30
0.0
 10
286.142034644353
 20
83.74683175232921
 30
0.0
 10
284.2265571932209
 20
85.10350921771749
 30
0.0
 10
283.1830405531765
 20
85.84593003211009
 30
0.0
 10
282.3872444623678
 20
86.86154195064411
 30
0.0
 10
281.8384280874805
 20
88.15411969544549
 30
0.0
 10
281.4508664307013
 20
89.06605022773576
 30
0.0
 10
281.2538047690621
 20
90.02998020314385
 30
0.0
 10
281.2538047690621
 20
91.04767351051366
 30
0.0
 10
281.2538047690621
 20
91.62196044030684
 30
0.0
 10
281.3299342115643
 20
92.30546736731355
 30
0.0
 10
281.4891075408368
 20
93.10165151366787
 30
0.0
 10
281.4891075408368
 20
93.10165151366787
 30
0.0
 10
288.1374515378901
 20
93.10165151366787
 30
0.0
 10
288.1374515378901
 20
93.10165151366787
 30
0.0
 10
288.0836882059284
 20
92.59280485998298
 30
0.0
 10
288.0595934843208
 20
92.1618162598673
 30
0.0
 10
288.0595934843208
 20
91.80903849108962
 30
0.0
 10
288.0595934843208
 20
90.85717351537373
 30
0.0
 10
288.3448495881545
 20
90.10783825671308
 30
0.0
 10
288.9194892957164
 20
89.56110553316522
 30
0.0
 10
289.6098753892143
 20
88.89654050983809
 30
0.0
 10
290.6223828633831
 20
88.56270690724378
 30
0.0
 10
291.9511556072611
 20
88.56270690724378
 30
0.0
 10
293.174871131597
 20
88.56270690724378
 30
0.0
 10
294.12123277412
 20
88.82386828946989
 30
0.0
 10
294.7857955349434
 20
89.34647327613712
 30
0.0
 10
295.4641166287491
 20
89.89320826218875
 30
0.0
 10
295.8031360645444
 20
90.61668491039799
 30
0.0
 10
295.8031360645444
 20
91.51655275489846
 30
0.0
 10
295.8031360645444
 20
92.39023986515083
 30
0.0
 10
295.3721474644287
 20
93.08785790290867
 30
0.0
 10
294.5122516530332
 20
93.610145389584
 30
0.0
 10
294.0175161100993
 20
93.90951260416874
 30
0.0
 10
292.844141973368
 20
94.49621731142287
 30
0.0
 10
290.9927289650459
 20
95.37022423356954
 30
0.0
 10
288.9194892957164
 20
96.33383670898574
 30
0.0
 10
287.4918329432501
 20
97.15580891023771
 30
0.0
 10
286.7080665743567
 20
97.83243667075327
 30
0.0
 10
285.3651827197277
 20
98.97966997481825
 30
0.0
 10
284.6971627367703
 20
100.4335024377279
 30
0.0
 10
284.6971627367703
 20
102.1949571150117
 30
0.0
 10
284.6971627367703
 20
103.7073506875384
 30
0.0
 10
285.13160855902
 20
105.1470720396969
 30
0.0
 10
286.0056154811666
 20
106.5175431158444
 30
0.0
 10
287.1128790640291
 20
108.2617822380118
 30
0.0
 10
288.7568587443099
 20
109.514601928272
 30
0.0
 10
290.93381507766
 20
110.2707810756469
 30
0.0
 10
292.2887992097582
 20
110.7398343970137
 30
0.0
 10
293.8063433377091
 20
110.9751371687884
 30
0.0
 10
295.4917038502675
 20
110.9751371687884
 30
0.0
 10
298.5788268270639
 20
110.9751371687884
 30
0.0
 10
300.9859353767646
 20
110.1860438555865
 30
0.0
 10
302.7074556106227
 20
108.6079983402902
 30
0.0
 10
304.1922619616311
 20
107.253049485969
 30
0.0
 10
304.9364113870907
 20
105.5501559183023
 30
0.0
 10
304.9364113870907
 20
103.5047856927063
 30
0.0
 10
304.9364113870907
 20
103.243659588257
 30
0.0
 10
304.9226530541084
 20
102.9043226524698
 30
0.0
 10
304.8964416658882
 20
102.4874451631052
 30
0.0
 10
304.8964416658882
 20
102.4874451631052
 30
0.0
 10
298.2291610365538
 20
102.409587109536
 30
0.0
 10
298.2291610365538
 20
102.409587109536
 30
0.0
 10
298.2291610365538
 20
103.2712115319986
 30
0.0
 10
298.0910057283982
 20
103.9151015155716
 30
0.0
 10
297.8174693699902
 20
104.3457373379185
 30
0.0
 10
297.3224088035623
 20
105.1003995408877
 30
0.0
 10
296.3811977164635
 20
105.4810820311756
 30
0.0
 10
295.0021541405347
 20
105.4810820311756
 30
0.0
 10
294.0485252759749
 20
105.4810820311756
 30
0.0
 10
293.2734019624166
 20
105.2907231471432
 30
0.0
 10
292.6746322554703
 20
104.9134978789892
 30
0.0
 10
292.0100694946469
 20
104.4945742785658
 30
0.0
 10
291.6762358920526
 20
103.9013079048124
 30
0.0
 10
291.6762358920526
 20
103.1327109799765
 30
0.0
 10
291.6762358920526
 20
102.5184543289808
 30
0.0
 10
291.9821721492264
 20
102.0185682306228
 30
0.0
 10
292.595045590834
 20
101.6271965739409
 30
0.0
 10
293.0260415934102
 20
101.3660704694916
 30
0.0
 10
294.2580047150751
 20
100.75527104063
 30
0.0
 10
296.2913099409789
 20
99.78788384308788
 30
0.0
 10
298.0111015637701
 20
98.97966997481825
 30
0.0
 10
299.0804415364889
 20
98.45187915494998
 30
0.0
 10
299.4993651369124
 20
98.20451386433777
 30
0.0
 10
300.6586281628927
 20
97.48653806846677
 30
0.0
 10
301.5064942523729
 20
96.70591386471256
 30
0.0
 10
302.0432103497913
 20
95.8580453322353
 30
0.0
  0
SPLINE
  5
42
330
1F
100
AcDbEntity
  8
Ebene 1
 62
   250
370
    35
100
AcDbSpline
210
0.0
220
0.0
230
1.0
 70
    11
 71
     3
 72
   227
 73
   223
 74
     0
 42
0.0000000001
 43
0.0000000001
 12
1.0
 22
0.0
 32
0.0
 13
1.0
 23
0.0
 33
0.0
 40
0.0
 40
0.0
 40
0.0
 40
0.0
 40
1.0
 40
1.0
 40
1.0
 40
2.0
 40
2.0
 40
2.0
 40
3.0
 40
3.0
 40
3.0
 40
4.0
 40
4.0
 40
4.0
 40
5.0
 40
5.0
 40
5.0
 40
6.0
 40
6.0
 40
6.0
 40
7.0
 40
7.0
 40
7.0
 40
8.0
 40
8.0
 40
8.0
 40
9.0
 40
9.0
 40
9.0
 40
10.0
 40
10.0
 40
10.0
 40
11.0
 40
11.0
 40
11.0
 40
12.0
 40
12.0
 40
12.0
 40
13.0
 40
13.0
 40
13.0
 40
14.0
 40
14.0
 40
14.0
 40
15.0
 40
15.0
 40
15.0
 40
16.0
 40
16.0
 40
16.0
 40
17.0
 40
17.0
 40
17.0
 40
18.0
 40
18.0
 40
18.0
 40
19.0
 40
19.0
 40
19.0
 40
20.0
 40
20.0
 40
20.0
 40
21.0
 40
21.0
 40
21.0
 40
22.0
 40
22.0
 40
22.0
 40
23.0
 40
23.0
 40
23.0
 40
24.0
 40
24.0
 40
24.0
 40
25.0
 40
25.0
 40
25.0
 40
26.0
 40
26.0
 40
26.0
 40
27.0
 40
27.0
 40
27.0
 40
28.0
 40
28.0
 40
28.0
 40
29.0
 40
29.0
 40
29.0
 40
30.0
 40
30.0
 40
30.0
 40
31.0
 40
31.0
 40
31.0
 40
32.0
 40
32.0
 40
32.0
 40
33.0
 40
33.0
 40
33.0
 40
34.0
 40
34.0
 40
34.0
 40
35.0
 40
35.0
 40
35.0
 40
36.0
 40
36.0
 40
36.0
 40
37.0
 40
37.0
 40
37.0
 40
38.0
 40
38.0
 40
38.0
 40
39.0
 40
39.0
 40
39.0
 40
40.0
 40
40.0
 40
40.0
 40
41.0
 40
41.0
 40
41.0
 40
42.0
 40
42.0
 40
42.0
 40
43.0
 40
43.0
 40
43.0
 40
44.0
 40
44.0
 40
44.0
 40
45.0
 40
45.0
 40
45.0
 40
46.0
 40
46.0
 40
46.0
 40
47.0
 40
47.0
 40
47.0
 40
48.0
 40
48.0
 40
48.0
 40
49.0
 40
49.0
 40
49.0
 40
50.0
 40
50.0
 40
50.0
 40
51.0
 40
51.0
 40
51.0
 40
52.0
 40
52.0
 40
52.0
 40
53.0
 40
53.0
 40
53.0
 40
54.0
 40
54.0
 40
54.0
 40
55.0
 40
55.0
 40
55.0
 40
56.0
 40
56.0
 40
56.0
 40
57.0
 40
57.0
 40
57.0
 40
58.0
 40
58.0
 40
58.0
 40
59.0
 40
59.0
 40
59.0
 40
60.0
 40
60.0
 40
60.0
 40
61.0
 40
61.0
 40
61.0
 40
62.0
 40
62.0
 40
62.0
 40
63.0
 40
63.0
 40
63.0
 40
64.0
 40
64.0
 40
64.0
 40
65.0
 40
65.0
 40
65.0
 40
66.0
 40
66.0
 40
66.0
 40
67.0
 40
67.0
 40
67.0
 40
68.0
 40
68.0
 40
68.0
 40
69.0
 40
69.0
 40
69.0
 40
70.0
 40
70.0
 40
70.0
 40
71.0
 40
71.0
 40
71.0
 40
72.0
 40
72.0
 40
72.0
 40
73.0
 40
73.0
 40
73.0
 40
74.0
 40
74.0
 40
74.0
 40
74.0
 10
370.6033918517937
 20
105.0294206538096
 30
0.0
 10
370.9665060183696
 20
105.564090640169
 30
0.0
 10
371.6190037959841
 20
105.8305789667037
 30
0.0
 10
372.5567576846385
 20
105.8305789667037
 30
0.0
 10
373.3270832400016
 20
105.8305789667037
 30
0.0
 10
374.2269487953325
 20
105.7215353583745
 30
0.0
 10
375.2546257395199
 20
105.500026197359
 30
0.0
 10
375.2546257395199
 20
105.500026197359
 30
0.0
 10
376.4693454614381
 20
110.3694882953509
 30
0.0
 10
376.4693454614381
 20
110.3694882953509
 30
0.0
 10
374.75953740631
 20
110.6809205096278
 30
0.0
 10
373.3009071288973
 20
110.8383652278333
 30
0.0
 10
372.0878807403116
 20
110.8383652278333
 30
0.0
 10
368.4643237967728
 20
110.8383652278333
 30
0.0
 10
366.0141762973856
 20
109.5543952605901
 30
0.0
 10
364.7353568532608
 20
106.9846914372598
 30
0.0
 10
364.3043682422575
 20
106.1247956258642
 30
0.0
 10
363.9133493534659
 20
104.9844767660673
 30
0.0
 10
363.562300186887
 20
103.5636995800921
 30
0.0
 10
363.562300186887
 20
103.5636995800921
 30
0.0
 10
363.3459415758303
 20
102.7038037686966
 30
0.0
 10
363.3459415758303
 20
102.7038037686966
 30
0.0
 10
363.3459415758303
 20
102.7038037686966
 30
0.0
 10
359.0230379658
 20
102.7038037686966
 30
0.0
 10
359.0230379658
 20
102.7038037686966
 30
0.0
 10
359.0230379658
 20
102.7038037686966
 30
0.0
 10
358.6678612992218
 20
102.7038037686966
 30
0.0
 10
358.6678612992218
 20
102.7038037686966
 30
0.0
 10
358.6678612992218
 20
102.7038037686966
 30
0.0
 10
354.6243576891215
 20
102.7038037686966
 30
0.0
 10
354.6243576891215
 20
102.7038037686966
 30
0.0
 10
354.6243576891215
 20
102.7038037686966
 30
0.0
 10
354.8217368557392
 20
103.5047856927063
 30
0.0
 10
354.8217368557392
 20
103.5047856927063
 30
0.0
 10
354.9636946334812
 20
104.1173137326349
 30
0.0
 10
355.1783246334278
 20
104.6261603863198
 30
0.0
 10
355.4653093555784
 20
105.0294206538096
 30
0.0
 10
355.8321982443753
 20
105.564090640169
 30
0.0
 10
356.4829674108791
 20
105.8305789667037
 30
0.0
 10
357.4207212995335
 20
105.8305789667037
 30
0.0
 10
358.1890007437863
 20
105.8305789667037
 30
0.0
 10
359.088831021339
 20
105.7215353583745
 30
0.0
 10
360.1203179655255
 20
105.500026197359
 30
0.0
 10
360.1203179655255
 20
105.500026197359
 30
0.0
 10
361.3333443541113
 20
110.3694882953509
 30
0.0
 10
361.3333443541113
 20
110.3694882953509
 30
0.0
 10
359.6252649100938
 20
110.6809205096278
 30
0.0
 10
358.1648707437923
 20
110.8383652278333
 30
0.0
 10
356.9535729663173
 20
110.8383652278333
 30
0.0
 10
353.3265940783353
 20
110.8383652278333
 30
0.0
 10
350.876437715063
 20
109.5543952605901
 30
0.0
 10
349.5993116365341
 20
106.9846914372598
 30
0.0
 10
349.1683583141952
 20
106.1247956258642
 30
0.0
 10
348.7773394352821
 20
104.9844767660673
 30
0.0
 10
348.4259374998027
 20
103.5636995800921
 30
0.0
 10
348.4259374998027
 20
103.5636995800921
 30
0.0
 10
348.2095788942113
 20
102.7038037686966
 30
0.0
 10
348.2095788942113
 20
102.7038037686966
 30
0.0
 10
348.2095788942113
 20
102.7038037686966
 30
0.0
 10
342.578892926751
 20
102.7038037686966
 30
0.0
 10
342.578892926751
 20
102.7038037686966
 30
0.0
 10
342.578892926751
 20
102.7038037686966
 30
0.0
 10
341.7696560029519
 20
102.7038037686966
 30
0.0
 10
341.7696560029519
 20
102.7038037686966
 30
0.0
 10
341.7696560029519
 20
102.7038037686966
 30
0.0
 10
335.9116047635143
 20
102.7038037686966
 30
0.0
 10
335.9116047635143
 20
102.7038037686966
 30
0.0
 10
335.9116047635143
 20
102.7038037686966
 30
0.0
 10
333.3887851056546
 20
92.6324218034167
 30
0.0
 10
333.3887851056546
 20
92.6324218034167
 30
0.0
 10
333.087654002226
 20
91.43181322293567
 30
0.0
 10
332.7414378999476
 20
90.54570831069722
 30
0.0
 10
332.3504190210344
 20
89.97106631575798
 30
0.0
 10
331.7099862595954
 20
89.03331245079319
 30
0.0
 10
330.8138954491233
 20
88.56270690724378
 30
0.0
 10
329.6525510343072
 20
88.56270690724378
 30
0.0
 10
329.0383026955183
 20
88.56270690724378
 30
0.0
 10
328.5294477296266
 20
88.71327245895809
 30
0.0
 10
328.1263991287981
 20
89.01263967354282
 30
0.0
 10
327.722962472424
 20
89.31377077697144
 30
0.0
 10
327.5207502553607
 20
89.74955715474249
 30
0.0
 10
327.5207502553607
 20
90.32419686230443
 30
0.0
 10
327.5207502553607
 20
90.80686740554603
 30
0.0
 10
327.6175524751133
 20
91.44384294485099
 30
0.0
 10
327.8149669145212
 20
92.23967431343652
 30
0.0
 10
327.8149669145212
 20
92.23967431343652
 30
0.0
 10
330.4328954588434
 20
102.7038037686966
 30
0.0
 10
330.4328954588434
 20
102.7038037686966
 30
0.0
 10
330.4328954588434
 20
102.7038037686966
 30
0.0
 10
324.7939544915937
 20
102.7038037686966
 30
0.0
 10
324.7939544915937
 20
102.7038037686966
 30
0.0
 10
324.7939544915937
 20
102.7038037686966
 30
0.0
 10
323.7466360301746
 20
102.7038037686966
 30
0.0
 10
323.7466360301746
 20
102.7038037686966
 30
0.0
 10
323.7466360301746
 20
102.7038037686966
 30
0.0
 10
316.1395397123862
 20
102.7038037686966
 30
0.0
 10
316.1395397123862
 20
102.7038037686966
 30
0.0
 10
316.1395397123862
 20
102.7038037686966
 30
0.0
 10
317.5482166208923
 20
107.9624150234271
 30
0.0
 10
317.5482166208923
 20
107.9624150234271
 30
0.0
 10
317.5482166208923
 20
107.9624150234271
 30
0.0
 10
311.1527437284988
 20
107.9624150234271
 30
0.0
 10
311.1527437284988
 20
107.9624150234271
 30
0.0
 10
311.1527437284988
 20
107.9624150234271
 30
0.0
 10
309.7058257098573
 20
102.7038037686966
 30
0.0
 10
309.7058257098573
 20
102.7038037686966
 30
0.0
 10
309.7058257098573
 20
102.7038037686966
 30
0.0
 10
305.8700377521608
 20
102.7038037686966
 30
0.0
 10
305.8700377521608
 20
102.7038037686966
 30
0.0
 10
305.8700377521608
 20
102.7038037686966
 30
0.0
 10
304.6587400052858
 20
98.02985111016125
 30
0.0
 10
304.6587400052858
 20
98.02985111016125
 30
0.0
 10
304.6587400052858
 20
98.02985111016125
 30
0.0
 10
308.3370832447767
 20
98.02985111016125
 30
0.0
 10
308.3370832447767
 20
98.02985111016125
 30
0.0
 10
308.3370832447767
 20
98.02985111016125
 30
0.0
 10
306.5945374558995
 20
91.92824442146265
 30
0.0
 10
306.5945374558995
 20
91.92824442146265
 30
0.0
 10
305.9578794165864
 20
89.68549271193245
 30
0.0
 10
305.6392152580495
 20
88.23716358221574
 30
0.0
 10
305.6392152580495
 20
87.58671193214349
 30
0.0
 10
305.6392152580495
 20
86.19010002332958
 30
0.0
 10
306.1983680215621
 20
85.10350921771749
 30
0.0
 10
307.3214713262427
 20
84.32147145989116
 30
0.0
 10
308.3370832447767
 20
83.61521036679827
 30
0.0
 10
309.5294368254684
 20
83.26588982015461
 30
0.0
 10
310.8964506794819
 20
83.26588982015461
 30
0.0
 10
312.4625723061935
 20
83.26588982015461
 30
0.0
 10
314.1634276992368
 20
83.64311508830858
 30
0.0
 10
316.0027677714311
 20
84.39932951346039
 30
0.0
 10
316.0027677714311
 20
84.39932951346039
 30
0.0
 10
317.1950860743459
 20
89.17008439174829
 30
0.0
 10
317.1950860743459
 20
89.17008439174829
 30
0.0
 10
315.8005202765909
 20
88.77874801284322
 30
0.0
 10
314.7242658596039
 20
88.58337968449415
 30
0.0
 10
313.969815323296
 20
88.58337968449415
 30
0.0
 10
313.1219492338158
 20
88.58337968449415
 30
0.0
 10
312.6978750779681
 20
88.87071942222659
 30
0.0
 10
312.6978750779681
 20
89.44327775541727
 30
0.0
 10
312.6978750779681
 20
89.6927246561924
 30
0.0
 10
312.8067422974129
 20
90.25152464193623
 30
0.0
 10
313.0282514584284
 20
91.12553156408289
 30
0.0
 10
313.0282514584284
 20
91.12553156408289
 30
0.0
 10
314.8693360323937
 20
98.02985111016125
 30
0.0
 10
314.8693360323937
 20
98.02985111016125
 30
0.0
 10
314.8693360323937
 20
98.02985111016125
 30
0.0
 10
322.580803159167
 20
98.02985111016125
 30
0.0
 10
322.580803159167
 20
98.02985111016125
 30
0.0
 10
322.580803159167
 20
98.02985111016125
 30
0.0
 10
321.2634332530174
 20
92.74852096712144
 30
0.0
 10
321.2634332530174
 20
92.74852096712144
 30
0.0
 10
320.8844712579996
 20
91.22233608830572
 30
0.0
 10
320.6942887628515
 20
89.91423608863255
 30
0.0
 10
320.6942887628515
 20
88.81868245626886
 30
0.0
 10
320.6942887628515
 20
87.18846110897037
 30
0.0
 10
321.3343687465217
 20
85.84074419890905
 30
0.0
 10
322.6114948250506
 20
84.7693249788074
 30
0.0
 10
323.8124561833005
 20
83.76577591851257
 30
0.0
 10
325.3107033672992
 20
83.26588982015461
 30
0.0
 10
327.1104344324954
 20
83.26588982015461
 30
0.0
 10
329.1041227149655
 20
83.26588982015461
 30
0.0
 10
330.9106976688759
 20
84.02725480073057
 30
0.0
 10
332.5268079054233
 20
85.55344198401653
 30
0.0
 10
332.447221240787
 20
84.97880227645459
 30
0.0
 10
332.4089801306515
 20
84.35248062576672
 30
0.0
 10
332.4089801306515
 20
83.67412425418414
 30
0.0
 10
332.4089801306515
 20
83.67412425418414
 30
0.0
 10
338.569503029039
 20
83.67412425418414
 30
0.0
 10
338.569503029039
 20
83.67412425418414
 30
0.0
 10
338.5174683081443
 20
84.31459442336595
 30
0.0
 10
338.4899249153775
 20
84.78346922588238
 30
0.0
 10
338.4899249153775
 20
85.08283644046712
 30
0.0
 10
338.4899249153775
 20
85.90276253066017
 30
0.0
 10
338.6804516373196
 20
87.06410694547625
 30
0.0
 10
339.0573241277048
 20
88.56270690724378
 30
0.0
 10
339.0573241277048
 20
88.56270690724378
 30
0.0
 10
341.4148054702022
 20
98.02985111016125
 30
0.0
 10
341.4148054702022
 20
98.02985111016125
 30
0.0
 10
341.4148054702022
 20
98.02985111016125
 30
0.0
 10
347.0365222574718
 20
98.02985111016125
 30
0.0
 10
347.0365222574718
 20
98.02985111016125
 30
0.0
 10
347.0365222574718
 20
98.02985111016125
 30
0.0
 10
343.4594615153969
 20
83.67412425418414
 30
0.0
 10
343.4594615153969
 20
83.67412425418414
 30
0.0
 10
343.4594615153969
 20
83.67412425418414
 30
0.0
 10
350.1271024564023
 20
83.67412425418414
 30
0.0
 10
350.1271024564023
 20
83.67412425418414
 30
0.0
 10
350.1271024564023
 20
83.67412425418414
 30
0.0
 10
353.7072765782398
 20
98.02985111016125
 30
0.0
 10
353.7072765782398
 20
98.02985111016125
 30
0.0
 10
353.7072765782398
 20
98.02985111016125
 30
0.0
 10
357.4565635217467
 20
98.02985111016125
 30
0.0
 10
357.4565635217467
 20
98.02985111016125
 30
0.0
 10
357.4565635217467
 20
98.02985111016125
 30
0.0
 10
357.7927960216629
 20
98.02985111016125
 30
0.0
 10
357.7927960216629
 20
98.02985111016125
 30
0.0
 10
357.7927960216629
 20
98.02985111016125
 30
0.0
 10
362.1725674094569
 20
98.02985111016125
 30
0.0
 10
362.1725674094569
 20
98.02985111016125
 30
0.0
 10
362.1725674094569
 20
98.02985111016125
 30
0.0
 10
358.5958593547957
 20
83.67412425418414
 30
0.0
 10
358.5958593547957
 20
83.67412425418414
 30
0.0
 10
358.5958593547957
 20
83.67412425418414
 30
0.0
 10
365.2631476864623
 20
83.67412425418414
 30
0.0
 10
365.2631476864623
 20
83.67412425418414
 30
0.0
 10
365.2631476864623
 20
83.67412425418414
 30
0.0
 10
368.8415843522342
 20
98.02985111016125
 30
0.0
 10
368.8415843522342
 20
98.02985111016125
 30
0.0
 10
368.8415843522342
 20
98.02985111016125
 30
0.0
 10
372.9288324067679
 20
98.02985111016125
 30
0.0
 10
372.9288324067679
 20
98.02985111016125
 30
0.0
 10
372.9288324067679
 20
98.02985111016125
 30
0.0
 10
374.1608029620157
 20
102.7038037686966
 30
0.0
 10
374.1608029620157
 20
102.7038037686966
 30
0.0
 10
374.1608029620157
 20
102.7038037686966
 30
0.0
 10
369.7603587964489
 20
102.7038037686966
 30
0.0
 10
369.7603587964489
 20
102.7038037686966
 30
0.0
 10
369.7603587964489
 20
102.7038037686966
 30
0.0
 10
369.956044629733
 20
103.5047856927063
 30
0.0
 10
369.956044629733
 20
103.5047856927063
 30
0.0
 10
370.0980024074755
 20
104.1173137326349
 30
0.0
 10
370.3160543518654
 20
104.6261603863198
 30
0.0
 10
370.6033918517937
 20
105.0294206538096
 30
0.0
  0
SPLINE
  5
43
330
1F
100
AcDbEntity
  8
Ebene 1
 62
   250
370
    35
100
AcDbSpline
210
0.0
220
0.0
230
1.0
 70
    11
 71
     3
 72
    68
 73
    64
 74
     0
 42
0.0000000001
 43
0.0000000001
 12
1.0
 22
0.0
 32
0.0
 13
1.0
 23
0.0
 33
0.0
 40
0.0
 40
0.0
 40
0.0
 40
0.0
 40
1.0
 40
1.0
 40
1.0
 40
2.0
 40
2.0
 40
2.0
 40
3.0
 40
3.0
 40
3.0
 40
4.0
 40
4.0
 40
4.0
 40
5.0
 40
5.0
 40
5.0
 40
6.0
 40
6.0
 40
6.0
 40
7.0
 40
7.0
 40
7.0
 40
8.0
 40
8.0
 40
8.0
 40
9.0
 40
9.0
 40
9.0
 40
10.0
 40
10.0
 40
10.0
 40
11.0
 40
11.0
 40
11.0
 40
12.0
 40
12.0
 40
12.0
 40
13.0
 40
13.0
 40
13.0
 40
14.0
 40
14.0
 40
14.0
 40
15.0
 40
15.0
 40
15.0
 40
16.0
 40
16.0
 40
16.0
 40
17.0
 40
17.0
 40
17.0
 40
18.0
 40
18.0
 40
18.0
 40
19.0
 40
19.0
 40
19.0
 40
20.0
 40
20.0
 40
20.0
 40
21.0
 40
21.0
 40
21.0
 40
21.0
 10
250.5494036079522
 20
101.4907774107546
 30
0.0
 10
250.5494036079522
 20
100.4210846602669
 30
0.0
 10
250.3547471596333
 20
99.11813524906349
 30
0.0
 10
249.9626989006981
 20
97.57991834386222
 30
0.0
 10
249.9626989006981
 20
97.57991834386222
 30
0.0
 10
246.5027666050408
 20
83.67412425418414
 30
0.0
 10
246.5027666050408
 20
83.67412425418414
 30
0.0
 10
246.5027666050408
 20
83.67412425418414
 30
0.0
 10
253.1693782633333
 20
83.67412425418414
 30
0.0
 10
253.1693782633333
 20
83.67412425418414
 30
0.0
 10
253.1693782633333
 20
83.67412425418414
 30
0.0
 10
255.5954309792173
 20
93.39378678399267
 30
0.0
 10
255.5954309792173
 20
93.39378678399267
 30
0.0
 10
255.9206215264766
 20
94.69878230625501
 30
0.0
 10
256.2599937400407
 20
95.65032978197901
 30
0.0
 10
256.6127715088184
 20
96.24906664260452
 30
0.0
 10
257.225299548747
 20
97.2925833090105
 30
0.0
 10
258.0906986933355
 20
97.81349250456991
 30
0.0
 10
259.212073386949
 20
97.81349250456991
 30
0.0
 10
259.8383950376369
 20
97.81349250456991
 30
0.0
 10
260.3334480805626
 20
97.65089723094029
 30
0.0
 10
260.7000194600995
 20
97.32394279483714
 30
0.0
 10
261.0496927845119
 20
97.02422280248364
 30
0.0
 10
261.2278102799678
 20
96.60907392418608
 30
0.0
 10
261.2278102799678
 20
96.07267775375973
 30
0.0
 10
261.2278102799678
 20
95.46014728683097
 30
0.0
 10
261.0893097279456
 20
94.61404508619461
 30
0.0
 10
260.8161186238042
 20
93.53056108772854
 30
0.0
 10
260.8161186238042
 20
93.53056108772854
 30
0.0
 10
258.3518247977847
 20
83.67412425418414
 30
0.0
 10
258.3518247977847
 20
83.67412425418414
 30
0.0
 10
258.3518247977847
 20
83.67412425418414
 30
0.0
 10
265.0401385160405
 20
83.67412425418414
 30
0.0
 10
265.0401385160405
 20
83.67412425418414
 30
0.0
 10
265.0401385160405
 20
83.67412425418414
 30
0.0
 10
267.6804684486801
 20
94.29365231659074
 30
0.0
 10
267.6804684486801
 20
94.29365231659074
 30
0.0
 10
268.0580464946028
 20
95.79398330938466
 30
0.0
 10
268.2482289897509
 20
97.05212752399395
 30
0.0
 10
268.2482289897509
 20
98.06773944252798
 30
0.0
 10
268.2482289897509
 20
99.59219801474691
 30
0.0
 10
267.6081137283038
 20
100.8382796496234
 30
0.0
 10
266.3310229275518
 20
101.8039382360985
 30
0.0
 10
265.195854623179
 20
102.663834047494
 30
0.0
 10
263.8598499350411
 20
103.0930940365427
 30
0.0
 10
262.3233616409069
 20
103.0930940365427
 30
0.0
 10
261.0844832680623
 20
103.0930940365427
 30
0.0
 10
259.9351972573895
 20
102.7799332111988
 30
0.0
 10
258.8796221575025
 20
102.1549873938092
 30
0.0
 10
258.319122298619
 20
101.8280682354829
 30
0.0
 10
257.6614387042868
 20
101.2950915824136
 30
0.0
 10
256.906952890202
 20
100.5509774347309
 30
0.0
 10
256.9831176104811
 20
101.0598240884158
 30
0.0
 10
257.0230520539068
 20
101.4976944190697
 30
0.0
 10
257.0230520539068
 20
101.8624993457156
 30
0.0
 10
257.0230520539068
 20
102.084043784508
 30
0.0
 10
257.0110223319915
 20
102.3644694188531
 30
0.0
 10
256.9831176104811
 20
102.7020777521022
 30
0.0
 10
256.9831176104811
 20
102.7020777521022
 30
0.0
 10
250.4715166040486
 20
102.7020777521022
 30
0.0
 10
250.4715166040486
 20
102.7020777521022
 30
0.0
 10
250.5235449975008
 20
102.246994418883
 30
0.0
 10
250.5494036079522
 20
101.8418265684652
 30
0.0
 10
250.5494036079522
 20
101.4907774107546
 30
0.0
  0
SPLINE
  5
44
330
1F
100
AcDbEntity
  8
Ebene 1
 62
   250
370
    35
100
AcDbSpline
210
0.0
220
0.0
230
1.0
 70
    11
 71
     3
 72
    86
 73
    82
 74
     0
 42
0.0000000001
 43
0.0000000001
 12
1.0
 22
0.0
 32
0.0
 13
1.0
 23
0.0
 33
0.0
 40
0.0
 40
0.0
 40
0.0
 40
0.0
 40
1.0
 40
1.0
 40
1.0
 40
2.0
 40
2.0
 40
2.0
 40
3.0
 40
3.0
 40
3.0
 40
4.0
 40
4.0
 40
4.0
 40
5.0
 40
5.0
 40
5.0
 40
6.0
 40
6.0
 40
6.0
 40
7.0
 40
7.0
 40
7.0
 40
8.0
 40
8.0
 40
8.0
 40
9.0
 40
9.0
 40
9.0
 40
10.0
 40
10.0
 40
10.0
 40
11.0
 40
11.0
 40
11.0
 40
12.0
 40
12.0
 40
12.0
 40
13.0
 40
13.0
 40
13.0
 40
14.0
 40
14.0
 40
14.0
 40
15.0
 40
15.0
 40
15.0
 40
16.0
 40
16.0
 40
16.0
 40
17.0
 40
17.0
 40
17.0
 40
18.0
 40
18.0
 40
18.0
 40
19.0
 40
19.0
 40
19.0
 40
20.0
 40
20.0
 40
20.0
 40
21.0
 40
21.0
 40
21.0
 40
22.0
 40
22.0
 40
22.0
 40
23.0
 40
23.0
 40
23.0
 40
24.0
 40
24.0
 40
24.0
 40
25.0
 40
25.0
 40
25.0
 40
26.0
 40
26.0
 40
26.0
 40
27.0
 40
27.0
 40
27.0
 40
27.0
 10
231.7481124209464
 20
98.24448110468559
 30
0.0
 10
231.8015229751394
 20
97.93096750157288
 30
0.0
 10
231.8276990855827
 20
97.48826667953378
 30
0.0
 10
231.8276990855827
 20
96.91362697197184
 30
0.0
 10
231.8276990855827
 20
96.91362697197184
 30
0.0
 10
226.078197565598
 20
96.91362697197184
 30
0.0
 10
226.078197565598
 20
96.91362697197184
 30
0.0
 10
225.9345111803748
 20
98.29616304781152
 30
0.0
 10
225.0729277215097
 20
98.98654914130941
 30
0.0
 10
223.4964287425755
 20
98.98654914130941
 30
0.0
 10
222.9610532006785
 20
98.98654914130941
 30
0.0
 10
222.5111204343795
 20
98.89662608804798
 30
0.0
 10
222.1476943889072
 20
98.71335803716798
 30
0.0
 10
221.677753511196
 20
98.49184887615249
 30
0.0
 10
221.4424507394213
 20
98.15282944035715
 30
0.0
 10
221.4424507394213
 20
97.69566472979817
 30
0.0
 10
221.4424507394213
 20
97.21472279762358
 30
0.0
 10
221.7366673985819
 20
96.81509614115224
 30
0.0
 10
222.3230249444194
 20
96.5036639268753
 30
0.0
 10
222.6613388332233
 20
96.32177170929354
 30
0.0
 10
223.7437965140424
 20
95.86495977650334
 30
0.0
 10
225.5697036896819
 20
95.13492146179485
 30
0.0
 10
227.3414947555908
 20
94.41663064678663
 30
0.0
 10
228.5744883352457
 20
93.71245094252953
 30
0.0
 10
229.2655799842811
 20
93.02206484903164
 30
0.0
 10
230.2563916256701
 20
92.04434126286434
 30
0.0
 10
230.7521502241333
 20
90.79307379478682
 30
0.0
 10
230.7521502241333
 20
89.26688886657247
 30
0.0
 10
230.7521502241333
 20
87.03828361280172
 30
0.0
 10
229.7933708041494
 20
85.42182059848558
 30
0.0
 10
227.8761647419502
 20
84.41827367964375
 30
0.0
 10
226.3386181145097
 20
83.61005981137411
 30
0.0
 10
224.3625334427016
 20
83.20524732170173
 30
0.0
 10
221.9512973931062
 20
83.20524732170173
 30
0.0
 10
218.6660544213642
 20
83.20524732170173
 30
0.0
 10
216.2934122596731
 20
83.89566869297651
 30
0.0
 10
214.8330534080411
 20
85.2781694910393
 30
0.0
 10
213.6338206608583
 20
86.41333779541209
 30
0.0
 10
213.0343860578527
 20
87.85302386979374
 30
0.0
 10
213.0343860578527
 20
89.60072021409519
 30
0.0
 10
213.0343860578527
 20
89.75643632123365
 30
0.0
 10
213.0471159536041
 20
89.99209187077713
 30
0.0
 10
213.0732920640475
 20
90.30352408505405
 30
0.0
 10
213.0732920640475
 20
90.30352408505405
 30
0.0
 10
218.7828591406065
 20
90.30352408505405
 30
0.0
 10
218.7828591406065
 20
90.30352408505405
 30
0.0
 10
218.7966174735888
 20
89.33959410964596
 30
0.0
 10
218.9723416119239
 20
88.65435857157222
 30
0.0
 10
219.3106555007278
 20
88.24958135967672
 30
0.0
 10
219.7802027228327
 20
87.69042859616412
 30
0.0
 10
220.5684438172746
 20
87.41000554776275
 30
0.0
 10
221.677753511196
 20
87.41000554776275
 30
0.0
 10
223.3596568016204
 20
87.41000554776275
 30
0.0
 10
224.1999028912951
 20
87.90505859068845
 30
0.0
 10
224.1999028912951
 20
88.89654050983809
 30
0.0
 10
224.1999028912951
 20
89.36714605338749
 30
0.0
 10
223.9852728967707
 20
89.75643632123365
 30
0.0
 10
223.5543195744319
 20
90.06994992434636
 30
0.0
 10
223.242887360155
 20
90.30352408505405
 30
0.0
 10
222.5569462665437
 20
90.618413521465
 30
0.0
 10
221.5013646268072
 20
91.00943240037817
 30
0.0
 10
219.6365460632716
 20
91.72567710432746
 30
0.0
 10
218.2550683207382
 20
92.36438125469942
 30
0.0
 10
217.3559138345501
 20
92.92490985151026
 30
0.0
 10
215.8038625499403
 20
93.92880954812087
 30
0.0
 10
215.0276809030757
 20
95.33544034556806
 30
0.0
 10
215.0276809030757
 20
97.14892974374654
 30
0.0
 10
215.0276809030757
 20
98.21657638317527
 30
0.0
 10
215.3029533960529
 20
99.17877774751636
 30
0.0
 10
215.8503939376421
 20
100.0335230034878
 30
0.0
 10
216.3974817014625
 20
100.8885857594511
 30
0.0
 10
217.1595169597992
 20
101.5566083079443
 30
0.0
 10
218.1382636014959
 20
102.0375123968062
 30
0.0
 10
219.6902741174564
 20
102.793726821958
 30
0.0
 10
221.5403112924802
 20
103.1726833075404
 30
0.0
 10
223.6910971662992
 20
103.1726833075404
 30
0.0
 10
226.7427603264214
 20
103.1726833075404
 30
0.0
 10
228.9913658246102
 20
102.3834109990927
 30
0.0
 10
230.4389893987894
 20
100.806955530354
 30
0.0
 10
231.1424693866589
 20
100.0490099475371
 30
0.0
 10
231.5800138141239
 20
99.19599330263271
 30
0.0
 10
231.7481124209464
 20
98.24448110468559
 30
0.0
  0
SPLINE
  5
45
330
1F
100
AcDbEntity
  8
Ebene 1
 62
   250
370
    35
100
AcDbSpline
210
0.0
220
0.0
230
1.0
 70
    11
 71
     3
 72
    32
 73
    28
 74
     0
 42
0.0000000001
 43
0.0000000001
 12
1.0
 22
0.0
 32
0.0
 13
1.0
 23
0.0
 33
0.0
 40
0.0
 40
0.0
 40
0.0
 40
0.0
 40
1.0
 40
1.0
 40
1.0
 40
2.0
 40
2.0
 40
2.0
 40
3.0
 40
3.0
 40
3.0
 40
4.0
 40
4.0
 40
4.0
 40
5.0
 40
5.0
 40
5.0
 40
6.0
 40
6.0
 40
6.0
 40
7.0
 40
7.0
 40
7.0
 40
8.0
 40
8.0
 40
8.0
 40
9.0
 40
9.0
 40
9.0
 40
9.0
 10
203.8635345212302
 20
96.81509614115224
 30
0.0
 10
203.3815342557492
 20
97.58506889928637
 30
0.0
 10
202.6442992745577
 20
97.969211086619
 30
0.0
 10
201.6534876331687
 20
97.969211086619
 30
0.0
 10
200.5731057162871
 20
97.969211086619
 30
0.0
 10
199.6332704624865
 20
97.37735334903007
 30
0.0
 10
198.8381446494385
 20
96.19050553150767
 30
0.0
 10
197.9524305060675
 20
94.83555424721011
 30
0.0
 10
197.5093719055606
 20
93.30213511966423
 30
0.0
 10
197.5093719055606
 20
91.5961371076323
 30
0.0
 10
197.5093719055606
 20
90.65630185383172
 30
0.0
 10
197.7305635665842
 20
89.90012497752467
 30
0.0
 10
198.173622172679
 20
89.32580275544645
 30
0.0
 10
198.6287055058982
 20
88.7270660697173
 30
0.0
 10
199.2753471724034
 20
88.42766357735569
 30
0.0
 10
200.1100848947664
 20
88.42766357735569
 30
0.0
 10
201.3734173625361
 20
88.42766357735569
 30
0.0
 10
202.4097020583205
 20
89.13702911481383
 30
0.0
 10
203.2179159265901
 20
90.55949963407913
 30
0.0
 10
203.5441648071557
 20
91.11865239759173
 30
0.0
 10
203.8149570224695
 20
91.79319876927151
 30
0.0
 10
204.0295870169938
 20
92.58246847135779
 30
0.0
 10
204.2459103448083
 20
93.37138539567528
 30
0.0
 10
204.3523786754254
 20
94.07764648876817
 30
0.0
 10
204.3523786754254
 20
94.70393286167916
 30
0.0
 10
204.3523786754254
 20
95.56555728414173
 30
0.0
 10
204.189430624027
 20
96.2683611551006
 30
0.0
 10
203.8635345212302
 20
96.81509614115224
 30
0.0
  0
SPLINE
  5
46
330
1F
100
AcDbEntity
  8
Ebene 1
 62
   250
370
    35
100
AcDbSpline
210
0.0
220
0.0
230
1.0
 70
    11
 71
     3
 72
    50
 73
    46
 74
     0
 42
0.0000000001
 43
0.0000000001
 12
1.0
 22
0.0
 32
0.0
 13
1.0
 23
0.0
 33
0.0
 40
0.0
 40
0.0
 40
0.0
 40
0.0
 40
1.0
 40
1.0
 40
1.0
 40
2.0
 40
2.0
 40
2.0
 40
3.0
 40
3.0
 40
3.0
 40
4.0
 40
4.0
 40
4.0
 40
5.0
 40
5.0
 40
5.0
 40
6.0
 40
6.0
 40
6.0
 40
7.0
 40
7.0
 40
7.0
 40
8.0
 40
8.0
 40
8.0
 40
9.0
 40
9.0
 40
9.0
 40
10.0
 40
10.0
 40
10.0
 40
11.0
 40
11.0
 40
11.0
 40
12.0
 40
12.0
 40
12.0
 40
13.0
 40
13.0
 40
13.0
 40
14.0
 40
14.0
 40
14.0
 40
15.0
 40
15.0
 40
15.0
 40
15.0
 10
215.0497295136243
 20
110.3677596842839
 30
0.0
 10
215.0497295136243
 20
110.3677596842839
 30
0.0
 10
209.9458465882797
 20
89.95385076064163
 30
0.0
 10
209.9458465882797
 20
89.95385076064163
 30
0.0
 10
209.5158810436934
 20
88.2061544163402
 30
0.0
 10
209.2485460505137
 20
86.97245528114782
 30
0.0
 10
209.1438063309637
 20
86.25589307720661
 30
0.0
 10
209.0270368894982
 20
85.59133031638325
 30
0.0
 10
208.9291763364393
 20
84.73143450498767
 30
0.0
 10
208.8513182828701
 20
83.67412425418414
 30
0.0
 10
208.8513182828701
 20
83.67412425418414
 30
0.0
 10
202.5144065000937
 20
83.67412425418414
 30
0.0
 10
202.5144065000937
 20
83.67412425418414
 30
0.0
 10
202.5533582826948
 20
84.21052497894749
 30
0.0
 10
202.6391487191335
 20
84.79034839237355
 30
0.0
 10
202.7679831602911
 20
85.41494143199441
 30
0.0
 10
202.1692134533448
 20
84.82823886768202
 30
0.0
 10
201.6145762452725
 20
84.39245034696923
 30
0.0
 10
201.1060823693564
 20
84.1051128542998
 30
0.0
 10
200.1300873942561
 20
83.5580250904794
 30
0.0
 10
199.0148863115961
 20
83.28310537527096
 30
0.0
 10
197.7619305061148
 20
83.28310537527096
 30
0.0
 10
195.7034721732964
 20
83.28310537527096
 30
0.0
 10
194.0078056060041
 20
83.97522220122873
 30
0.0
 10
192.6786800843574
 20
85.35602754460854
 30
0.0
 10
191.3092320637393
 20
86.77849806387385
 30
0.0
 10
190.6247020812031
 20
88.65435857157222
 30
0.0
 10
190.6247020812031
 20
90.9904882341948
 30
0.0
 10
190.6247020812031
 20
93.12747484634241
 30
0.0
 10
191.1266695683969
 20
95.16593062767039
 30
0.0
 10
192.1308916186338
 20
97.10931280031281
 30
0.0
 10
193.2385031256306
 20
99.2342344127682
 30
0.0
 10
194.7519197536868
 20
100.8314004831322
 30
0.0
 10
196.6673972048189
 20
101.9007404558511
 30
0.0
 10
198.1150207789981
 20
102.7089896018976
 30
0.0
 10
199.6012382410815
 20
103.1137694186657
 30
0.0
 10
201.1260495910692
 20
103.1137694186657
 30
0.0
 10
203.0301675980467
 20
103.1137694186657
 30
0.0
 10
204.6655395007693
 20
102.414772942737
 30
0.0
 10
206.0342819658498
 20
101.0198543672132
 30
0.0
 10
206.0342819658498
 20
101.0198543672132
 30
0.0
 10
208.3624741286749
 20
110.3677596842839
 30
0.0
 10
208.3624741286749
 20
110.3677596842839
 30
0.0
 10
208.3624741286749
 20
110.3677596842839
 30
0.0
 10
215.0497295136243
 20
110.3677596842839
 30
0.0
 10
215.0497295136243
 20
110.3677596842839
 30
0.0
  0
SPLINE
  5
47
330
1F
100
AcDbEntity
  8
Ebene 1
 62
   250
370
    35
100
AcDbSpline
210
0.0
220
0.0
230
1.0
 70
    11
 71
     3
 72
    14
 73
    10
 74
     0
 42
0.0000000001
 43
0.0000000001
 12
1.0
 22
0.0
 32
0.0
 13
1.0
 23
0.0
 33
0.0
 40
0.0
 40
0.0
 40
0.0
 40
0.0
 40
1.0
 40
1.0
 40
1.0
 40
2.0
 40
2.0
 40
2.0
 40
3.0
 40
3.0
 40
3.0
 40
3.0
 10
160.4115832932301
 20
95.525940340708
 30
0.0
 10
160.3337211873238
 20
97.67672056361481
 30
0.0
 10
159.2960606582411
 20
98.75297498060172
 30
0.0
 10
157.3009965424728
 20
98.75297498060172
 30
0.0
 10
155.4640474226706
 20
98.75297498060172
 30
0.0
 10
154.1015138463206
 20
97.67672056361481
 30
0.0
 10
153.2154419244818
 20
95.525940340708
 30
0.0
 10
153.2154419244818
 20
95.525940340708
 30
0.0
 10
160.4115832932301
 20
95.525940340708
 30
0.0
 10
160.4115832932301
 20
95.525940340708
 30
0.0
  0
SPLINE
  5
48
330
1F
100
AcDbEntity
  8
Ebene 1
 62
   250
370
    35
100
AcDbSpline
210
0.0
220
0.0
230
1.0
 70
    11
 71
     3
 72
    53
 73
    49
 74
     0
 42
0.0000000001
 43
0.0000000001
 12
1.0
 22
0.0
 32
0.0
 13
1.0
 23
0.0
 33
0.0
 40
0.0
 40
0.0
 40
0.0
 40
0.0
 40
1.0
 40
1.0
 40
1.0
 40
2.0
 40
2.0
 40
2.0
 40
3.0
 40
3.0
 40
3.0
 40
4.0
 40
4.0
 40
4.0
 40
5.0
 40
5.0
 40
5.0
 40
6.0
 40
6.0
 40
6.0
 40
7.0
 40
7.0
 40
7.0
 40
8.0
 40
8.0
 40
8.0
 40
9.0
 40
9.0
 40
9.0
 40
10.0
 40
10.0
 40
10.0
 40
11.0
 40
11.0
 40
11.0
 40
12.0
 40
12.0
 40
12.0
 40
13.0
 40
13.0
 40
13.0
 40
14.0
 40
14.0
 40
14.0
 40
15.0
 40
15.0
 40
15.0
 40
16.0
 40
16.0
 40
16.0
 40
16.0
 10
166.5121299185883
 20
95.44808228713877
 30
0.0
 10
166.5121299185883
 20
94.24884953995597
 30
0.0
 10
166.3295674232459
 20
93.0148329047717
 30
0.0
 10
165.9643718770072
 20
91.75185553261785
 30
0.0
 10
165.9643718770072
 20
91.75185553261785
 30
0.0
 10
152.6480341611798
 20
91.75185553261785
 30
0.0
 10
152.6480341611798
 20
91.75185553261785
 30
0.0
 10
152.6218580507364
 20
91.42458127867573
 30
0.0
 10
152.6087699955148
 20
91.17029906294079
 30
0.0
 10
152.6087699955148
 20
90.9904882341948
 30
0.0
 10
152.6087699955148
 20
90.02310103665269
 30
0.0
 10
152.9012580436084
 20
89.24794244531752
 30
0.0
 10
153.4879666282949
 20
88.66123773806338
 30
0.0
 10
154.0626024584244
 20
88.10074441902943
 30
0.0
 10
154.8508491049813
 20
87.82201470391819
 30
0.0
 10
155.8550663015838
 20
87.82201470391819
 30
0.0
 10
156.8190315547687
 20
87.82201470391819
 30
0.0
 10
157.5952132016334
 20
88.10074441902943
 30
0.0
 10
158.1818826311106
 20
88.66123773806338
 30
0.0
 10
158.4551090130289
 20
88.9365102310406
 30
0.0
 10
158.7417409501608
 20
89.34474466507011
 30
0.0
 10
159.0435110713504
 20
89.89493687325576
 30
0.0
 10
159.0435110713504
 20
89.89493687325576
 30
0.0
 10
165.3053166253405
 20
89.84844076333087
 30
0.0
 10
165.3053166253405
 20
89.84844076333087
 30
0.0
 10
163.2503113906931
 20
85.10248616218803
 30
0.0
 10
160.0395045281632
 20
83.20524732170173
 30
0.0
 10
155.2298029842023
 20
83.20524732170173
 30
0.0
 10
152.5829466628403
 20
83.20524732170173
 30
0.0
 10
150.463175605809
 20
83.83844813888078
 30
0.0
 10
148.8735942574737
 20
85.10350921771749
 30
0.0
 10
146.9832698612555
 20
86.60210917948501
 30
0.0
 10
146.0367318298481
 20
88.7150010700251
 30
0.0
 10
146.0367318298481
 20
91.43869238942683
 30
0.0
 10
146.0367318298481
 20
93.32831123010753
 30
0.0
 10
146.4868409850316
 20
95.14698886510233
 30
0.0
 10
147.3873805187088
 20
96.89468280578848
 30
0.0
 10
148.6255562082462
 20
99.28076580046998
 30
0.0
 10
150.3801317190388
 20
101.0077893675211
 30
0.0
 10
152.6480341611798
 20
102.0771293402399
 30
0.0
 10
154.1862863441579
 20
102.8075204327172
 30
0.0
 10
155.8995163004498
 20
103.1726833075404
 30
0.0
 10
157.7908990299744
 20
103.1726833075404
 30
0.0
 10
160.3337211873238
 20
103.1726833075404
 30
0.0
 10
162.3676966909883
 20
102.5460062727223
 30
0.0
 10
163.8931783187367
 20
101.2950915824136
 30
0.0
 10
165.6381229964416
 20
99.88641467390748
 30
0.0
 10
166.5121299185883
 20
97.93819944583282
 30
0.0
 10
166.5121299185883
 20
95.44808228713877
 30
0.0
  0
SPLINE
  5
49
330
1F
100
AcDbEntity
  8
Ebene 1
 62
   250
370
    35
100
AcDbSpline
210
0.0
220
0.0
230
1.0
 70
    11
 71
     3
 72
    26
 73
    22
 74
     0
 42
0.0000000001
 43
0.0000000001
 12
1.0
 22
0.0
 32
0.0
 13
1.0
 23
0.0
 33
0.0
 40
0.0
 40
0.0
 40
0.0
 40
0.0
 40
1.0
 40
1.0
 40
1.0
 40
2.0
 40
2.0
 40
2.0
 40
3.0
 40
3.0
 40
3.0
 40
4.0
 40
4.0
 40
4.0
 40
5.0
 40
5.0
 40
5.0
 40
6.0
 40
6.0
 40
6.0
 40
7.0
 40
7.0
 40
7.0
 40
7.0
 10
131.7835221934778
 20
98.85012997812308
 30
0.0
 10
131.7835221934778
 20
98.85012997812308
 30
0.0
 10
133.6602293678212
 20
98.85012997812308
 30
0.0
 10
133.6602293678212
 20
98.85012997812308
 30
0.0
 10
135.8111859796124
 20
98.85012997812308
 30
0.0
 10
137.285514830888
 20
99.10437691608115
 30
0.0
 10
138.0797586995141
 20
99.61149495869904
 30
0.0
 10
139.006505898093
 20
100.1999282770202
 30
0.0
 10
139.4685036640843
 20
101.137682141985
 30
0.0
 10
139.4685036640843
 20
102.4302598867864
 30
0.0
 10
139.4685036640843
 20
103.5237298588896
 30
0.0
 10
139.0185708977852
 20
104.2351415074067
 30
0.0
 10
138.1204339762542
 20
104.5603673324428
 30
0.0
 10
137.5580003794919
 20
104.768118160476
 30
0.0
 10
136.3589440211935
 20
104.8737045466711
 30
0.0
 10
134.5211482347462
 20
104.8737045466711
 30
0.0
 10
134.5211482347462
 20
104.8737045466711
 30
0.0
 10
133.3090038212262
 20
104.8737045466711
 30
0.0
 10
133.3090038212262
 20
104.8737045466711
 30
0.0
 10
133.3090038212262
 20
104.8737045466711
 30
0.0
 10
131.7835221934778
 20
98.85012997812308
 30
0.0
 10
131.7835221934778
 20
98.85012997812308
 30
0.0
  0
SPLINE
  5
4A
330
1F
100
AcDbEntity
  8
Ebene 1
 62
   250
370
    35
100
AcDbSpline
210
0.0
220
0.0
230
1.0
 70
    11
 71
     3
 72
    41
 73
    37
 74
     0
 42
0.0000000001
 43
0.0000000001
 12
1.0
 22
0.0
 32
0.0
 13
1.0
 23
0.0
 33
0.0
 40
0.0
 40
0.0
 40
0.0
 40
0.0
 40
1.0
 40
1.0
 40
1.0
 40
2.0
 40
2.0
 40
2.0
 40
3.0
 40
3.0
 40
3.0
 40
4.0
 40
4.0
 40
4.0
 40
5.0
 40
5.0
 40
5.0
 40
6.0
 40
6.0
 40
6.0
 40
7.0
 40
7.0
 40
7.0
 40
8.0
 40
8.0
 40
8.0
 40
9.0
 40
9.0
 40
9.0
 40
10.0
 40
10.0
 40
10.0
 40
11.0
 40
11.0
 40
11.0
 40
12.0
 40
12.0
 40
12.0
 40
12.0
 10
127.7153595194875
 20
110.3677596842839
 30
0.0
 10
127.7153595194875
 20
110.3677596842839
 30
0.0
 10
135.3612532133134
 20
110.3677596842839
 30
0.0
 10
135.3612532133134
 20
110.3677596842839
 30
0.0
 10
138.738112571607
 20
110.3677596842839
 30
0.0
 10
141.1694922317996
 20
110.0563274700069
 30
0.0
 10
142.6567327494124
 20
109.4298294304347
 30
0.0
 10
145.2896543489077
 20
108.33445445838
 30
0.0
 10
146.6063620930934
 20
106.2424470117516
 30
0.0
 10
146.6063620930934
 20
103.1516551461598
 30
0.0
 10
146.6063620930934
 20
100.4021404940836
 30
0.0
 10
145.6228176737413
 20
98.1455999754638
 30
0.0
 10
143.6542860751975
 20
96.38756476317057
 30
0.0
 10
142.6100638532363
 20
95.46014728683097
 30
0.0
 10
141.3329694498511
 20
94.77664035982424
 30
0.0
 10
139.8214225439694
 20
94.33358676001637
 30
0.0
 10
139.8214225439694
 20
94.33358676001637
 30
0.0
 10
143.8878566068927
 20
83.67412425418414
 30
0.0
 10
143.8878566068927
 20
83.67412425418414
 30
0.0
 10
143.8878566068927
 20
83.67412425418414
 30
0.0
 10
136.2810859676243
 20
83.67412425418414
 30
0.0
 10
136.2810859676243
 20
83.67412425418414
 30
0.0
 10
136.2810859676243
 20
83.67412425418414
 30
0.0
 10
133.4068290965082
 20
93.62771372246914
 30
0.0
 10
133.4068290965082
 20
93.62771372246914
 30
0.0
 10
133.4068290965082
 20
93.62771372246914
 30
0.0
 10
130.4917558375446
 20
93.62771372246914
 30
0.0
 10
130.4917558375446
 20
93.62771372246914
 30
0.0
 10
130.4917558375446
 20
93.62771372246914
 30
0.0
 10
128.0095761786481
 20
83.67412425418414
 30
0.0
 10
128.0095761786481
 20
83.67412425418414
 30
0.0
 10
128.0095761786481
 20
83.67412425418414
 30
0.0
 10
121.0670155224342
 20
83.67412425418414
 30
0.0
 10
121.0670155224342
 20
83.67412425418414
 30
0.0
 10
121.0670155224342
 20
83.67412425418414
 30
0.0
 10
127.7153595194875
 20
110.3677596842839
 30
0.0
 10
127.7153595194875
 20
110.3677596842839
 30
0.0
  0
SPLINE
  5
4B
330
1F
100
AcDbEntity
  8
Ebene 1
 62
   250
370
    35
100
AcDbSpline
210
0.0
220
0.0
230
1.0
 70
    11
 71
     3
 72
    26
 73
    22
 74
     0
 42
0.0000000001
 43
0.0000000001
 12
1.0
 22
0.0
 32
0.0
 13
1.0
 23
0.0
 33
0.0
 40
0.0
 40
0.0
 40
0.0
 40
0.0
 40
1.0
 40
1.0
 40
1.0
 40
2.0
 40
2.0
 40
2.0
 40
3.0
 40
3.0
 40
3.0
 40
4.0
 40
4.0
 40
4.0
 40
5.0
 40
5.0
 40
5.0
 40
6.0
 40
6.0
 40
6.0
 40
7.0
 40
7.0
 40
7.0
 40
7.0
 10
462.8942208227846
 20
82.78466754126585
 30
0.0
 10
462.8942208227846
 20
83.66696474097878
 30
0.0
 10
462.0987422118724
 20
84.10828972971966
 30
0.0
 10
460.5126180456022
 20
84.10828972971966
 30
0.0
 10
459.7832852680068
 20
84.10828972971966
 30
0.0
 10
459.1889958237107
 20
83.9966708436784
 30
0.0
 10
458.7301024904925
 20
83.77205878081638
 30
0.0
 10
458.1657991572997
 20
83.49713752308922
 30
0.0
 10
457.883647490704
 20
83.09059642234983
 30
0.0
 10
457.883647490704
 20
82.55627921375918
 30
0.0
 10
457.883647490704
 20
82.05053700443952
 30
0.0
 10
458.1634002684117
 20
81.65987090329513
 30
0.0
 10
458.7214947127167
 20
81.38322257701968
 30
0.0
 10
459.1579866570517
 20
81.16478258259255
 30
0.0
 10
459.6971722124728
 20
81.05591536314776
 30
0.0
 10
460.3451897123109
 20
81.05591536314776
 30
0.0
 10
461.1330836010025
 20
81.05591536314776
 30
0.0
 10
461.7700591563987
 20
81.23061091424647
 30
0.0
 10
462.2592561007212
 20
81.57580396099542
 30
0.0
 10
462.682659989504
 20
81.88205034207131
 30
0.0
 10
462.8942208227846
 20
82.28478144290789
 30
0.0
 10
462.8942208227846
 20
82.78466754126585
 30
0.0
  0
SPLINE
  5
4C
330
1F
100
AcDbEntity
  8
Ebene 1
 62
   250
370
    35
100
AcDbSpline
210
0.0
220
0.0
230
1.0
 70
    11
 71
     3
 72
    29
 73
    25
 74
     0
 42
0.0000000001
 43
0.0000000001
 12
1.0
 22
0.0
 32
0.0
 13
1.0
 23
0.0
 33
0.0
 40
0.0
 40
0.0
 40
0.0
 40
0.0
 40
1.0
 40
1.0
 40
1.0
 40
2.0
 40
2.0
 40
2.0
 40
3.0
 40
3.0
 40
3.0
 40
4.0
 40
4.0
 40
4.0
 40
5.0
 40
5.0
 40
5.0
 40
6.0
 40
6.0
 40
6.0
 40
7.0
 40
7.0
 40
7.0
 40
8.0
 40
8.0
 40
8.0
 40
8.0
 10
463.6080313781617
 20
90.9261434446706
 30
0.0
 10
463.3613691560009
 20
91.30128732398877
 30
0.0
 10
462.9548280449918
 20
91.49044676360735
 30
0.0
 10
462.3905247117996
 20
91.49044676360735
 30
0.0
 10
461.8145091563877
 20
91.49044676360735
 30
0.0
 10
461.3290869342867
 20
91.26925510258376
 30
0.0
 10
460.936692212163
 20
90.82930594714114
 30
0.0
 10
460.5301863789314
 20
90.37009512552324
 30
0.0
 10
460.3272686012039
 20
89.83680097246204
 30
0.0
 10
460.3272686012039
 20
89.232175154554
 30
0.0
 10
460.3272686012039
 20
88.75606627781166
 30
0.0
 10
460.4733186011676
 20
88.39397517593827
 30
0.0
 10
460.7682408233159
 20
88.1476657377777
 30
0.0
 10
461.0493694343572
 20
87.90029796631079
 30
0.0
 10
461.4152352675989
 20
87.77696685834613
 30
0.0
 10
461.8623811008204
 20
87.77696685834613
 30
0.0
 10
462.5200647117668
 20
87.77696685834613
 30
0.0
 10
463.0409763783032
 20
88.04740629589108
 30
0.0
 10
463.4223291559857
 20
88.58863794874978
 30
0.0
 10
463.7106897114692
 20
89.00583293810625
 30
0.0
 10
463.8540233225447
 20
89.48194181484858
 30
0.0
 10
463.8540233225447
 20
90.01767013451435
 30
0.0
 10
463.8540233225447
 20
90.37009512552324
 30
0.0
 10
463.7727080447873
 20
90.67256678447322
 30
0.0
 10
463.6080313781617
 20
90.9261434446706
 30
0.0
  0
SPLINE
  5
4D
330
1F
100
AcDbEntity
  8
Ebene 1
 62
   250
370
    35
100
AcDbSpline
210
0.0
220
0.0
230
1.0
 70
    11
 71
     3
 72
    80
 73
    76
 74
     0
 42
0.0000000001
 43
0.0000000001
 12
1.0
 22
0.0
 32
0.0
 13
1.0
 23
0.0
 33
0.0
 40
0.0
 40
0.0
 40
0.0
 40
0.0
 40
1.0
 40
1.0
 40
1.0
 40
2.0
 40
2.0
 40
2.0
 40
3.0
 40
3.0
 40
3.0
 40
4.0
 40
4.0
 40
4.0
 40
5.0
 40
5.0
 40
5.0
 40
6.0
 40
6.0
 40
6.0
 40
7.0
 40
7.0
 40
7.0
 40
8.0
 40
8.0
 40
8.0
 40
9.0
 40
9.0
 40
9.0
 40
10.0
 40
10.0
 40
10.0
 40
11.0
 40
11.0
 40
11.0
 40
12.0
 40
12.0
 40
12.0
 40
13.0
 40
13.0
 40
13.0
 40
14.0
 40
14.0
 40
14.0
 40
15.0
 40
15.0
 40
15.0
 40
16.0
 40
16.0
 40
16.0
 40
17.0
 40
17.0
 40
17.0
 40
18.0
 40
18.0
 40
18.0
 40
19.0
 40
19.0
 40
19.0
 40
20.0
 40
20.0
 40
20.0
 40
21.0
 40
21.0
 40
21.0
 40
22.0
 40
22.0
 40
22.0
 40
23.0
 40
23.0
 40
23.0
 40
24.0
 40
24.0
 40
24.0
 40
25.0
 40
25.0
 40
25.0
 40
25.0
 10
466.633524155183
 20
92.16947341295061
 30
0.0
 10
466.633524155183
 20
92.16947341295061
 30
0.0
 10
466.4027016552407
 20
91.26100010279437
 30
0.0
 10
466.4027016552407
 20
91.26100010279437
 30
0.0
 10
466.4027016552407
 20
91.26100010279437
 30
0.0
 10
464.6046991556901
 20
91.26100010279437
 30
0.0
 10
464.6046991556901
 20
91.26100010279437
 30
0.0
 10
464.8703055445125
 20
90.8661712239784
 30
0.0
 10
465.0015741555909
 20
90.42280012417862
 30
0.0
 10
465.0015741555909
 20
89.92912291455116
 30
0.0
 10
465.0015741555909
 20
89.22356737699583
 30
0.0
 10
464.8007024889744
 20
88.59103683757746
 30
0.0
 10
464.4017813779633
 20
88.0329424073712
 30
0.0
 10
463.9725213780706
 20
87.4493421444823
 30
0.0
 10
463.3999277671024
 20
87.08245326495353
 30
0.0
 10
462.682659989504
 20
86.92948882441154
 30
0.0
 10
462.4119030451272
 20
86.87089243701756
 30
0.0
 10
462.0057147118952
 20
86.83508549348663
 30
0.0
 10
461.4651886009194
 20
86.82439632709267
 30
0.0
 10
460.3368994345348
 20
86.46576244735328
 30
0.0
 10
459.7725961013427
 20
86.09506356792171
 30
0.0
 10
459.7725961013427
 20
85.71233655810909
 30
0.0
 10
459.7725961013427
 20
85.56660247029278
 30
0.0
 10
459.8704566568741
 20
85.45392525094519
 30
0.0
 10
460.0712930457125
 20
85.37779580844297
 30
0.0
 10
460.1839349901291
 20
85.33094692074928
 30
0.0
 10
460.5040102678265
 20
85.2723858111322
 30
0.0
 10
461.0324713788053
 20
85.20073664629345
 30
0.0
 10
461.9912508230102
 20
85.07772303832068
 30
0.0
 10
462.7229824894943
 20
84.87551082125732
 30
0.0
 10
463.2297477671453
 20
84.5923361062595
 30
0.0
 10
463.8288702669955
 20
84.25744417035885
 30
0.0
 10
464.1275319335871
 20
83.711061962076
 30
0.0
 10
464.1275319335871
 20
82.95177837033583
 30
0.0
 10
464.1275319335871
 20
82.01229589430402
 30
0.0
 10
463.6986247114722
 20
81.27089813544087
 30
0.0
 10
462.8414805450202
 20
80.73072481588851
 30
0.0
 10
462.1635122118564
 20
80.30626260449522
 30
0.0
 10
461.3208319342888
 20
80.09473705433614
 30
0.0
 10
460.3093474900977
 20
80.09473705433614
 30
0.0
 10
459.2861508236866
 20
80.09473705433614
 30
0.0
 10
458.4479508238961
 20
80.29800760470583
 30
0.0
 10
457.7961586018371
 20
80.70313759437009
 30
0.0
 10
457.0850997131258
 20
81.14446258311096
 30
0.0
 10
456.7288647132149
 20
81.73737617909559
 30
0.0
 10
456.7288647132149
 20
82.48427727115165
 30
0.0
 10
456.7288647132149
 20
83.53777752205241
 30
0.0
 10
457.4674755463634
 20
84.25744417035885
 30
0.0
 10
458.9426863793283
 20
84.64504110491487
 30
0.0
 10
458.5661313794218
 20
84.87551082125732
 30
0.0
 10
458.3787005461357
 20
85.1455974810335
 30
0.0
 10
458.3787005461357
 20
85.45635941754975
 30
0.0
 10
458.3787005461357
 20
85.87493024020445
 30
0.0
 10
458.6536202682893
 20
86.23702134207785
 30
0.0
 10
459.2058938792619
 20
86.5418918898555
 30
0.0
 10
459.4952774903011
 20
86.701065219128
 30
0.0
 10
459.923161656861
 20
86.87434965915158
 30
0.0
 10
460.4946969344959
 20
87.06209798769505
 30
0.0
 10
459.6192788791586
 20
87.49135797674373
 30
0.0
 10
459.1807408237128
 20
88.18590684791319
 30
0.0
 10
459.1807408237128
 20
89.14468626789714
 30
0.0
 10
459.1807408237128
 20
89.7089895868339
 30
0.0
 10
459.3157841570122
 20
90.24951568415504
 30
0.0
 10
459.5858708236115
 20
90.76594705986867
 30
0.0
 10
459.9159297124181
 20
91.39604343268245
 30
0.0
 10
460.3799736011908
 20
91.85733564313612
 30
0.0
 10
460.9801191565962
 20
92.15155230229671
 30
0.0
 10
461.4258891564849
 20
92.37514285214799
 30
0.0
 10
461.9233763785828
 20
92.4860561826517
 30
0.0
 10
462.4697586006686
 20
92.4860561826517
 30
0.0
 10
462.9407169338838
 20
92.4860561826517
 30
0.0
 10
463.4261391559848
 20
92.3809989631097
 30
0.0
 10
463.9256724891936
 20
92.16947341295061
 30
0.0
 10
463.9256724891936
 20
92.16947341295061
 30
0.0
 10
466.633524155183
 20
92.16947341295061
 30
0.0
 10
466.633524155183
 20
92.16947341295061
 30
0.0
  0
SPLINE
  5
4E
330
1F
100
AcDbEntity
  8
Ebene 1
 62
   250
370
    35
100
AcDbSpline
210
0.0
220
0.0
230
1.0
 70
    11
 71
     3
 72
    65
 73
    61
 74
     0
 42
0.0000000001
 43
0.0000000001
 12
1.0
 22
0.0
 32
0.0
 13
1.0
 23
0.0
 33
0.0
 40
0.0
 40
0.0
 40
0.0
 40
0.0
 40
1.0
 40
1.0
 40
1.0
 40
2.0
 40
2.0
 40
2.0
 40
3.0
 40
3.0
 40
3.0
 40
4.0
 40
4.0
 40
4.0
 40
5.0
 40
5.0
 40
5.0
 40
6.0
 40
6.0
 40
6.0
 40
7.0
 40
7.0
 40
7.0
 40
8.0
 40
8.0
 40
8.0
 40
9.0
 40
9.0
 40
9.0
 40
10.0
 40
10.0
 40
10.0
 40
11.0
 40
11.0
 40
11.0
 40
12.0
 40
12.0
 40
12.0
 40
13.0
 40
13.0
 40
13.0
 40
14.0
 40
14.0
 40
14.0
 40
15.0
 40
15.0
 40
15.0
 40
16.0
 40
16.0
 40
16.0
 40
17.0
 40
17.0
 40
17.0
 40
18.0
 40
18.0
 40
18.0
 40
19.0
 40
19.0
 40
19.0
 40
20.0
 40
20.0
 40
20.0
 40
20.0
 10
451.1984291827767
 20
92.00204508388873
 30
0.0
 10
451.1984291827767
 20
92.07267119319802
 30
0.0
 10
451.1936314051201
 20
92.17427119060599
 30
0.0
 10
451.1805080721215
 20
92.31072563156918
 30
0.0
 10
451.1805080721215
 20
92.31072563156918
 30
0.0
 10
452.3794233193137
 20
92.31072563156918
 30
0.0
 10
452.3794233193137
 20
92.31072563156918
 30
0.0
 10
452.3973444299689
 20
92.15155230229671
 30
0.0
 10
452.4079983185835
 20
92.0330560009738
 30
0.0
 10
452.4079983185835
 20
91.95794786279153
 30
0.0
 10
452.4079983185835
 20
91.71022731355585
 30
0.0
 10
452.3580538809744
 20
91.40429843247185
 30
0.0
 10
452.2574680446467
 20
91.04086677507709
 30
0.0
 10
452.979568859557
 20
92.00444397271642
 30
0.0
 10
453.8797608250384
 20
92.4860561826517
 30
0.0
 10
454.9556624914358
 20
92.4860561826517
 30
0.0
 10
455.6491530468179
 20
92.4860561826517
 30
0.0
 10
456.2003683244579
 20
92.30208257623414
 30
0.0
 10
456.6044752688015
 20
91.93036064127311
 30
0.0
 10
456.9810302687073
 20
91.58481481675538
 30
0.0
 10
457.1688138797717
 20
91.1435251057914
 30
0.0
 10
457.1688138797717
 20
90.60814956389441
 30
0.0
 10
457.1688138797717
 20
90.20160846315503
 30
0.0
 10
457.0585708242438
 20
89.55016903533019
 30
0.0
 10
456.833921935411
 20
88.64995072496333
 30
0.0
 10
456.833921935411
 20
88.64995072496333
 30
0.0
 10
455.6167680468259
 20
83.76376696073139
 30
0.0
 10
455.6167680468259
 20
83.76376696073139
 30
0.0
 10
455.6167680468259
 20
83.76376696073139
 30
0.0
 10
454.3999669360193
 20
83.76376696073139
 30
0.0
 10
454.3999669360193
 20
83.76376696073139
 30
0.0
 10
454.3999669360193
 20
83.76376696073139
 30
0.0
 10
455.60025804683
 20
88.59724572630796
 30
0.0
 10
455.60025804683
 20
88.59724572630796
 30
0.0
 10
455.7866305467834
 20
89.3444995961328
 30
0.0
 10
455.8824097134264
 20
89.88707180451286
 30
0.0
 10
455.8824097134264
 20
90.22919568467344
 30
0.0
 10
455.8824097134264
 20
90.58782956441281
 30
0.0
 10
455.763876380123
 20
90.86377233515071
 30
0.0
 10
455.5285736024035
 20
91.05772955242468
 30
0.0
 10
455.2822641580211
 20
91.25719010289157
 30
0.0
 10
454.952240546992
 20
91.35744954477818
 30
0.0
 10
454.5408663804287
 20
91.35744954477818
 30
0.0
 10
453.1183958252282
 20
91.35744954477818
 30
0.0
 10
452.1368886032797
 20
90.27329290577065
 30
0.0
 10
451.5953041726516
 20
88.10356851668048
 30
0.0
 10
451.5953041726516
 20
88.10356851668048
 30
0.0
 10
450.5107947558753
 20
83.76376696073139
 30
0.0
 10
450.5107947558753
 20
83.76376696073139
 30
0.0
 10
450.5107947558753
 20
83.76376696073139
 30
0.0
 10
449.2926178425079
 20
83.76376696073139
 30
0.0
 10
449.2926178425079
 20
83.76376696073139
 30
0.0
 10
449.2926178425079
 20
83.76376696073139
 30
0.0
 10
450.7047519731486
 20
89.40891681671161
 30
0.0
 10
450.7047519731486
 20
89.40891681671161
 30
0.0
 10
450.7464503054207
 20
89.57874403460119
 30
0.0
 10
450.8012455480301
 20
89.79993569562478
 30
0.0
 10
450.871827524443
 20
90.07002235540097
 30
0.0
 10
451.0906202966383
 20
90.9223334447678
 30
0.0
 10
451.1984291827767
 20
91.56555315058013
 30
0.0
 10
451.1984291827767
 20
92.00204508388873
 30
0.0
  0
SPLINE
  5
4F
330
1F
100
AcDbEntity
  8
Ebene 1
 62
   250
370
    35
100
AcDbSpline
210
0.0
220
0.0
230
1.0
 70
    11
 71
     3
 72
    23
 73
    19
 74
     0
 42
0.0000000001
 43
0.0000000001
 12
1.0
 22
0.0
 32
0.0
 13
1.0
 23
0.0
 33
0.0
 40
0.0
 40
0.0
 40
0.0
 40
0.0
 40
1.0
 40
1.0
 40
1.0
 40
2.0
 40
2.0
 40
2.0
 40
3.0
 40
3.0
 40
3.0
 40
4.0
 40
4.0
 40
4.0
 40
5.0
 40
5.0
 40
5.0
 40
6.0
 40
6.0
 40
6.0
 40
6.0
 10
447.4680865001692
 20
88.89731849643023
 30
0.0
 10
447.5028703881713
 20
89.1198507129752
 30
0.0
 10
447.5211442765934
 20
89.31691237461439
 30
0.0
 10
447.5211442765934
 20
89.4877979258103
 30
0.0
 10
447.5211442765934
 20
89.98147513543776
 30
0.0
 10
447.4253651123702
 20
90.38455901404312
 30
0.0
 10
447.2386398393562
 20
90.6966967838576
 30
0.0
 10
446.9434001246655
 20
91.18416510475458
 30
0.0
 10
446.467644025692
 20
91.42842843185625
 30
0.0
 10
445.808937375831
 20
91.42842843185625
 30
0.0
 10
445.044820728656
 20
91.42842843185625
 30
0.0
 10
444.3802579678326
 20
91.05772955242468
 30
0.0
 10
443.8159546488965
 20
90.31739012686786
 30
0.0
 10
443.5217379897359
 20
89.93981208094512
 30
0.0
 10
443.2719713294433
 20
89.4674779263287
 30
0.0
 10
443.0663018902426
 20
88.89731849643023
 30
0.0
 10
443.0663018902426
 20
88.89731849643023
 30
0.0
 10
447.4680865001692
 20
88.89731849643023
 30
0.0
 10
447.4680865001692
 20
88.89731849643023
 30
0.0
  0
SPLINE
  5
50
330
1F
100
AcDbEntity
  8
Ebene 1
 62
   250
370
    35
100
AcDbSpline
210
0.0
220
0.0
230
1.0
 70
    11
 71
     3
 72
    53
 73
    49
 74
     0
 42
0.0000000001
 43
0.0000000001
 12
1.0
 22
0.0
 32
0.0
 13
1.0
 23
0.0
 33
0.0
 40
0.0
 40
0.0
 40
0.0
 40
0.0
 40
1.0
 40
1.0
 40
1.0
 40
2.0
 40
2.0
 40
2.0
 40
3.0
 40
3.0
 40
3.0
 40
4.0
 40
4.0
 40
4.0
 40
5.0
 40
5.0
 40
5.0
 40
6.0
 40
6.0
 40
6.0
 40
7.0
 40
7.0
 40
7.0
 40
8.0
 40
8.0
 40
8.0
 40
9.0
 40
9.0
 40
9.0
 40
10.0
 40
10.0
 40
10.0
 40
11.0
 40
11.0
 40
11.0
 40
12.0
 40
12.0
 40
12.0
 40
13.0
 40
13.0
 40
13.0
 40
14.0
 40
14.0
 40
14.0
 40
15.0
 40
15.0
 40
15.0
 40
16.0
 40
16.0
 40
16.0
 40
16.0
 10
448.7379453566593
 20
89.47816709272267
 30
0.0
 10
448.7379453566593
 20
88.92589349570123
 30
0.0
 10
448.6638973029955
 20
88.40364128680277
 30
0.0
 10
448.5167889734133
 20
87.90855296610019
 30
0.0
 10
448.5167889734133
 20
87.90855296610019
 30
0.0
 10
442.8020360636539
 20
87.90855296610019
 30
0.0
 10
442.8020360636539
 20
87.90855296610019
 30
0.0
 10
442.7245307878534
 20
87.55718630839763
 30
0.0
 10
442.6862983278364
 20
87.23538242771865
 30
0.0
 10
442.6862983278364
 20
86.9484329905949
 30
0.0
 10
442.6862983278364
 20
86.30073300711909
 30
0.0
 10
442.8130780078166
 20
85.79019302014406
 30
0.0
 10
443.0663018902426
 20
85.413285251982
 30
0.0
 10
443.4070233276567
 20
84.90789582043111
 30
0.0
 10
443.9127568686497
 20
84.65569499353195
 30
0.0
 10
444.5835372162512
 20
84.65569499353195
 30
0.0
 10
445.312825999597
 20
84.65569499353195
 30
0.0
 10
445.8971318180235
 20
84.92821581991271
 30
0.0
 10
446.3398326400632
 20
85.47565636150189
 30
0.0
 10
446.5324140240396
 20
85.72196579966246
 30
0.0
 10
446.723266796947
 20
86.05096634682451
 30
0.0
 10
446.9110151254918
 20
86.4633635585256
 30
0.0
 10
446.9110151254918
 20
86.4633635585256
 30
0.0
 10
448.1281689833285
 20
86.40960022656388
 30
0.0
 10
448.1281689833285
 20
86.40960022656388
 30
0.0
 10
447.4525995561205
 20
84.51687694151795
 30
0.0
 10
446.2261323651855
 20
83.5701625212262
 30
0.0
 10
444.4508927718398
 20
83.5701625212262
 30
0.0
 10
443.5696099329584
 20
83.5701625212262
 30
0.0
 10
442.8606324510466
 20
83.81407307055908
 30
0.0
 10
442.3252569091502
 20
84.30154139145606
 30
0.0
 10
441.6903274809055
 20
84.88962193200842
 30
0.0
 10
441.3737094334262
 20
85.73403079935466
 30
0.0
 10
441.3737094334262
 20
86.83265132688206
 30
0.0
 10
441.3737094334262
 20
87.76871185855673
 30
0.0
 10
441.570771095066
 20
88.68335877966658
 30
0.0
 10
441.9641888628075
 20
89.57634514577349
 30
0.0
 10
442.4399802395548
 20
90.64639067402992
 30
0.0
 10
443.0928307784548
 20
91.43774176495198
 30
0.0
 10
443.9223877017367
 20
91.94965758522525
 30
0.0
 10
444.5153012977207
 20
92.31898063135858
 30
0.0
 10
445.1753837808799
 20
92.50535312660382
 30
0.0
 10
445.8971318180235
 20
92.50535312660382
 30
0.0
 10
446.7856026286913
 20
92.50535312660382
 30
0.0
 10
447.4780788821942
 20
92.2362895223571
 30
0.0
 10
447.9800375982193
 20
91.70197231376645
 30
0.0
 10
448.4844039742401
 20
91.16038788313897
 30
0.0
 10
448.7379453566593
 20
90.42040123535094
 30
0.0
 10
448.7379453566593
 20
89.47816709272267
 30
0.0
  0
POLYLINE
  5
51
330
1F
100
AcDbEntity
  8
Ebene 1
 62
   250
370
    35
100
AcDb2dPolyline
 66
     1
 10
0.0
 20
0.0
 30
0.0
  0
VERTEX
  5
52
330
51
100
AcDbEntity
  8
Ebene 1
 62
   250
370
    35
100
AcDbVertex
100
AcDb2dVertex
 10
433.3649132488574
 20
90.62607067454832
 30
0.0
  0
VERTEX
  5
53
330
51
100
AcDbEntity
  8
Ebene 1
 62
   250
370
    35
100
AcDbVertex
100
AcDb2dVertex
 10
438.8581217198271
 20
90.62607067454832
 30
0.0
  0
VERTEX
  5
54
330
51
100
AcDbEntity
  8
Ebene 1
 62
   250
370
    35
100
AcDbVertex
100
AcDb2dVertex
 10
440.1469247425025
 20
95.80230832026928
 30
0.0
  0
VERTEX
  5
55
330
51
100
AcDbEntity
  8
Ebene 1
 62
   250
370
    35
100
AcDbVertex
100
AcDb2dVertex
 10
441.4598577645617
 20
95.80230832026928
 30
0.0
  0
VERTEX
  5
56
330
51
100
AcDbEntity
  8
Ebene 1
 62
   250
370
    35
100
AcDbVertex
100
AcDb2dVertex
 10
438.4540233288947
 20
83.76376696073139
 30
0.0
  0
VERTEX
  5
57
330
51
100
AcDbEntity
  8
Ebene 1
 62
   250
370
    35
100
AcDbVertex
100
AcDb2dVertex
 10
437.1472906523622
 20
83.76376696073139
 30
0.0
  0
VERTEX
  5
58
330
51
100
AcDbEntity
  8
Ebene 1
 62
   250
370
    35
100
AcDbVertex
100
AcDb2dVertex
 10
438.5773458936582
 20
89.5057190364642
 30
0.0
  0
VERTEX
  5
59
330
51
100
AcDbEntity
  8
Ebene 1
 62
   250
370
    35
100
AcDbVertex
100
AcDb2dVertex
 10
433.0813857560934
 20
89.5057190364642
 30
0.0
  0
VERTEX
  5
5A
330
51
100
AcDbEntity
  8
Ebene 1
 62
   250
370
    35
100
AcDbVertex
100
AcDb2dVertex
 10
431.6540821813933
 20
83.76376696073139
 30
0.0
  0
VERTEX
  5
5B
330
51
100
AcDbEntity
  8
Ebene 1
 62
   250
370
    35
100
AcDbVertex
100
AcDb2dVertex
 10
430.3483811035933
 20
83.76376696073139
 30
0.0
  0
VERTEX
  5
5C
330
51
100
AcDbEntity
  8
Ebene 1
 62
   250
370
    35
100
AcDbVertex
100
AcDb2dVertex
 10
433.3466393604354
 20
95.80230832026928
 30
0.0
  0
VERTEX
  5
5D
330
51
100
AcDbEntity
  8
Ebene 1
 62
   250
370
    35
100
AcDbVertex
100
AcDb2dVertex
 10
434.661971271323
 20
95.80230832026928
 30
0.0
  0
VERTEX
  5
5E
330
51
100
AcDbEntity
  8
Ebene 1
 62
   250
370
    35
100
AcDbVertex
100
AcDb2dVertex
 10
433.3649132488574
 20
90.62607067454832
 30
0.0
  0
SEQEND
  5
5F
330
51
100
AcDbEntity
  8
Ebene 1
 62
   250
370
    35
  0
SPLINE
  5
60
330
1F
100
AcDbEntity
  8
Ebene 1
 62
   250
370
    35
100
AcDbSpline
210
0.0
220
0.0
230
1.0
 70
    11
 71
     3
 72
    35
 73
    31
 74
     0
 42
0.0000000001
 43
0.0000000001
 12
1.0
 22
0.0
 32
0.0
 13
1.0
 23
0.0
 33
0.0
 40
0.0
 40
0.0
 40
0.0
 40
0.0
 40
1.0
 40
1.0
 40
1.0
 40
2.0
 40
2.0
 40
2.0
 40
3.0
 40
3.0
 40
3.0
 40
4.0
 40
4.0
 40
4.0
 40
5.0
 40
5.0
 40
5.0
 40
6.0
 40
6.0
 40
6.0
 40
7.0
 40
7.0
 40
7.0
 40
8.0
 40
8.0
 40
8.0
 40
9.0
 40
9.0
 40
9.0
 40
10.0
 40
10.0
 40
10.0
 40
10.0
 10
423.9801073771733
 20
90.7311278940903
 30
0.0
 10
423.6559398854423
 20
91.19623010444678
 30
0.0
 10
423.1684715645466
 20
91.42842843185625
 30
0.0
 10
422.5156210256466
 20
91.42842843185625
 30
0.0
 10
421.6333238259336
 20
91.42842843185625
 30
0.0
 10
420.8846941228106
 20
90.9402545554217
 30
0.0
 10
420.2666627496902
 20
89.96492985808209
 30
0.0
 10
419.9831352569224
 20
89.52258181381177
 30
0.0
 10
419.7598622070636
 20
89.01546377119388
 30
0.0
 10
419.5924338780023
 20
88.44290545246773
 30
0.0
 10
419.4239824934098
 20
87.87031185596469
 30
0.0
 10
419.3402683288807
 20
87.32392964768184
 30
0.0
 10
419.3402683288807
 20
86.80753354974509
 30
0.0
 10
419.3402683288807
 20
86.21807717589449
 30
0.0
 10
419.4787688809022
 20
85.72574211366145
 30
0.0
 10
419.755064429407
 20
85.32509080978758
 30
0.0
 10
420.0716471991087
 20
84.8720535991233
 30
0.0
 10
420.545357187024
 20
84.64504110491487
 30
0.0
 10
421.1751360598446
 20
84.64504110491487
 30
0.0
 10
422.0505188152914
 20
84.64504110491487
 30
0.0
 10
422.7974199073462
 20
85.12182025941789
 30
0.0
 10
423.4158122215429
 20
86.07576662396959
 30
0.0
 10
423.7038118286686
 20
86.52192466814269
 30
0.0
 10
423.9346343227792
 20
87.0310888218195
 30
0.0
 10
424.1079187628027
 20
87.60608130715022
 30
0.0
 10
424.2812032028257
 20
88.17867490365325
 30
0.0
 10
424.3683745894913
 20
88.72265822310841
 30
0.0
 10
424.3683745894913
 20
89.24148848764973
 30
0.0
 10
424.3683745894913
 20
89.85849680524187
 30
0.0
 10
424.2381643150342
 20
90.35457290369702
 30
0.0
 10
423.9801073771733
 20
90.7311278940903
 30
0.0
  0
SPLINE
  5
61
330
1F
100
AcDbEntity
  8
Ebene 1
 62
   250
370
    35
100
AcDbSpline
210
0.0
220
0.0
230
1.0
 70
    11
 71
     3
 72
    32
 73
    28
 74
     0
 42
0.0000000001
 43
0.0000000001
 12
1.0
 22
0.0
 32
0.0
 13
1.0
 23
0.0
 33
0.0
 40
0.0
 40
0.0
 40
0.0
 40
0.0
 40
1.0
 40
1.0
 40
1.0
 40
2.0
 40
2.0
 40
2.0
 40
3.0
 40
3.0
 40
3.0
 40
4.0
 40
4.0
 40
4.0
 40
5.0
 40
5.0
 40
5.0
 40
6.0
 40
6.0
 40
6.0
 40
7.0
 40
7.0
 40
7.0
 40
8.0
 40
8.0
 40
8.0
 40
9.0
 40
9.0
 40
9.0
 40
9.0
 10
418.7952619538935
 20
89.87641791589577
 30
0.0
 10
419.6882130422248
 20
91.62788898232314
 30
0.0
 10
420.9718655094768
 20
92.50535312660382
 30
0.0
 10
422.6479126889395
 20
92.50535312660382
 30
0.0
 10
423.6235548862691
 20
92.50535312660382
 30
0.0
 10
424.3890473667417
 20
92.17772841274001
 30
0.0
 10
424.9409681859918
 20
91.52523065160884
 30
0.0
 10
425.4170770627354
 20
90.96678344363379
 30
0.0
 10
425.656154556636
 20
90.1954365569885
 30
0.0
 10
425.656154556636
 20
89.21390126613132
 30
0.0
 10
425.656154556636
 20
88.26133073487786
 30
0.0
 10
425.4446372210357
 20
87.32978575864355
 30
0.0
 10
425.0212251283913
 20
86.41891355965961
 30
0.0
 10
424.5619872212562
 20
85.41949414071249
 30
0.0
 10
423.9597955547407
 20
84.67224027088763
 30
0.0
 10
423.2125687856431
 20
84.17856306126016
 30
0.0
 10
422.5955251902754
 20
83.77205878081638
 30
0.0
 10
421.9010115968815
 20
83.5701625212262
 30
0.0
 10
421.1310388387486
 20
83.5701625212262
 30
0.0
 10
420.2187555286902
 20
83.5701625212262
 30
0.0
 10
419.4873766584591
 20
83.84405918090518
 30
0.0
 10
418.9351383392158
 20
84.39008861141926
 30
0.0
 10
418.340848909931
 20
84.97816915197163
 30
0.0
 10
418.0445508619353
 20
85.79499079779943
 30
0.0
 10
418.0445508619353
 20
86.84231743774657
 30
0.0
 10
418.0445508619353
 20
87.88237685565689
 30
0.0
 10
418.292941688931
 20
88.89350849652745
 30
0.0
 10
418.7952619538935
 20
89.87641791589577
 30
0.0
  0
SPLINE
  5
62
330
1F
100
AcDbEntity
  8
Ebene 1
 62
   250
370
    35
100
AcDbSpline
210
0.0
220
0.0
230
1.0
 70
    11
 71
     3
 72
    35
 73
    31
 74
     0
 42
0.0000000001
 43
0.0000000001
 12
1.0
 22
0.0
 32
0.0
 13
1.0
 23
0.0
 33
0.0
 40
0.0
 40
0.0
 40
0.0
 40
0.0
 40
1.0
 40
1.0
 40
1.0
 40
2.0
 40
2.0
 40
2.0
 40
3.0
 40
3.0
 40
3.0
 40
4.0
 40
4.0
 40
4.0
 40
5.0
 40
5.0
 40
5.0
 40
6.0
 40
6.0
 40
6.0
 40
7.0
 40
7.0
 40
7.0
 40
8.0
 40
8.0
 40
8.0
 40
9.0
 40
9.0
 40
9.0
 40
10.0
 40
10.0
 40
10.0
 40
10.0
 10
414.9839567733522
 20
90.81004428096587
 30
0.0
 10
414.6955962251533
 20
91.18793982688051
 30
0.0
 10
414.2831990134522
 20
91.37434759990262
 30
0.0
 10
413.7475059715627
 20
91.37434759990262
 30
0.0
 10
413.0133401569589
 20
91.37434759990262
 30
0.0
 10
412.3549862848679
 20
90.93199955563232
 30
0.0
 10
411.7727618552766
 20
90.04384624495765
 30
0.0
 10
411.4620351965366
 20
89.57253514587069
 30
0.0
 10
411.2132915917708
 20
89.03821793728004
 30
0.0
 10
411.0324224297179
 20
88.43807239703547
 30
0.0
 10
410.8498246565998
 20
87.83796213456777
 30
0.0
 10
410.7588785478083
 20
87.25951242710305
 30
0.0
 10
410.7588785478083
 20
86.701065219128
 30
0.0
 10
410.7588785478083
 20
86.11884078953733
 30
0.0
 10
410.9021768774858
 20
85.63341857969927
 30
0.0
 10
411.1902199256915
 20
85.24483386739067
 30
0.0
 10
411.4665233356415
 20
84.8696547102956
 30
0.0
 10
411.8633983355423
 20
84.68084804844581
 30
0.0
 10
412.3822207286175
 20
84.68084804844581
 30
0.0
 10
413.245538484367
 20
84.68084804844581
 30
0.0
 10
413.9807273545023
 20
85.24000081195841
 30
0.0
 10
414.5867290057066
 20
86.3568952279085
 30
0.0
 10
414.8330384438704
 20
86.81578854953449
 30
0.0
 10
415.0314759388078
 20
87.3190965922496
 30
0.0
 10
415.1823942682896
 20
87.87031185596469
 30
0.0
 10
415.332924542227
 20
88.41912823085211
 30
0.0
 10
415.4070078736684
 20
88.92003738473952
 30
0.0
 10
415.4070078736684
 20
89.37307459540379
 30
0.0
 10
415.4070078736684
 20
89.96736402468666
 30
0.0
 10
415.2657556550518
 20
90.44555600137068
 30
0.0
 10
414.9839567733522
 20
90.81004428096587
 30
0.0
  0
SPLINE
  5
63
330
1F
100
AcDbEntity
  8
Ebene 1
 62
   250
370
    35
100
AcDbSpline
210
0.0
220
0.0
230
1.0
 70
    11
 71
     3
 72
    50
 73
    46
 74
     0
 42
0.0000000001
 43
0.0000000001
 12
1.0
 22
0.0
 32
0.0
 13
1.0
 23
0.0
 33
0.0
 40
0.0
 40
0.0
 40
0.0
 40
0.0
 40
1.0
 40
1.0
 40
1.0
 40
2.0
 40
2.0
 40
2.0
 40
3.0
 40
3.0
 40
3.0
 40
4.0
 40
4.0
 40
4.0
 40
5.0
 40
5.0
 40
5.0
 40
6.0
 40
6.0
 40
6.0
 40
7.0
 40
7.0
 40
7.0
 40
8.0
 40
8.0
 40
8.0
 40
9.0
 40
9.0
 40
9.0
 40
10.0
 40
10.0
 40
10.0
 40
11.0
 40
11.0
 40
11.0
 40
12.0
 40
12.0
 40
12.0
 40
13.0
 40
13.0
 40
13.0
 40
14.0
 40
14.0
 40
14.0
 40
15.0
 40
15.0
 40
15.0
 40
15.0
 10
418.3956352974235
 20
95.8636563742597
 30
0.0
 10
418.3956352974235
 20
95.8636563742597
 30
0.0
 10
416.0071261122839
 20
86.29593522946372
 30
0.0
 10
416.0071261122839
 20
86.29593522946372
 30
0.0
 10
415.6843344456982
 20
85.00815526231773
 30
0.0
 10
415.5265289817335
 20
84.16445195050906
 30
0.0
 10
415.5385939814232
 20
83.76376696073139
 30
0.0
 10
415.5385939814232
 20
83.76376696073139
 30
0.0
 10
414.3393612342423
 20
83.76376696073139
 30
0.0
 10
414.3393612342423
 20
83.76376696073139
 30
0.0
 10
414.3393612342423
 20
83.76376696073139
 30
0.0
 10
414.3393612342423
 20
83.89641140179178
 30
0.0
 10
414.3393612342423
 20
83.89641140179178
 30
0.0
 10
414.3393612342423
 20
84.25504528153117
 30
0.0
 10
414.3955234550323
 20
84.59956805051944
 30
0.0
 10
414.5078205571031
 20
84.92821581991271
 30
0.0
 10
414.2256609593646
 20
84.53959582982722
 30
0.0
 10
413.9628062438471
 20
84.25744417035885
 30
0.0
 10
413.7227056944196
 20
84.08038655851765
 30
0.0
 10
413.269315705984
 20
83.74722168337571
 30
0.0
 10
412.7315412752592
 20
83.57979489197616
 30
0.0
 10
412.1073010134065
 20
83.57979489197616
 30
0.0
 10
411.2966529785323
 20
83.57979489197616
 30
0.0
 10
410.6489882728341
 20
83.86056918048398
 30
0.0
 10
410.1670232851287
 20
84.42487249942073
 30
0.0
 10
409.6970880193432
 20
84.97231304100991
 30
0.0
 10
409.4628435808735
 20
85.71956691083477
 30
0.0
 10
409.4628435808735
 20
86.66522299782018
 30
0.0
 10
409.4628435808735
 20
87.61814630684242
 30
0.0
 10
409.661281075811
 20
88.56140350500014
 30
0.0
 10
410.0619307878118
 20
89.4974640366748
 30
0.0
 10
410.531830775823
 20
90.58401956451002
 30
0.0
 10
411.1509204822522
 20
91.3850032233582
 30
0.0
 10
411.9136612961258
 20
91.89557675327163
 30
0.0
 10
412.4896768369853
 20
92.28282266757758
 30
0.0
 10
413.1163512654439
 20
92.4778011828623
 30
0.0
 10
413.79195597043
 20
92.4778011828623
 30
0.0
 10
414.8330384438704
 20
92.4778011828623
 30
0.0
 10
415.5599723142117
 20
91.99340202855367
 30
0.0
 10
415.9713111926046
 20
91.02294566442319
 30
0.0
 10
415.9713111926046
 20
91.02294566442319
 30
0.0
 10
417.1715669953207
 20
95.8636563742597
 30
0.0
 10
417.1715669953207
 20
95.8636563742597
 30
0.0
 10
417.1715669953207
 20
95.8636563742597
 30
0.0
 10
418.3956352974235
 20
95.8636563742597
 30
0.0
 10
418.3956352974235
 20
95.8636563742597
 30
0.0
  0
SPLINE
  5
64
330
1F
100
AcDbEntity
  8
Ebene 1
 62
   250
370
    35
100
AcDbSpline
210
0.0
220
0.0
230
1.0
 70
    11
 71
     3
 72
    59
 73
    55
 74
     0
 42
0.0000000001
 43
0.0000000001
 12
1.0
 22
0.0
 32
0.0
 13
1.0
 23
0.0
 33
0.0
 40
0.0
 40
0.0
 40
0.0
 40
0.0
 40
1.0
 40
1.0
 40
1.0
 40
2.0
 40
2.0
 40
2.0
 40
3.0
 40
3.0
 40
3.0
 40
4.0
 40
4.0
 40
4.0
 40
5.0
 40
5.0
 40
5.0
 40
6.0
 40
6.0
 40
6.0
 40
7.0
 40
7.0
 40
7.0
 40
8.0
 40
8.0
 40
8.0
 40
9.0
 40
9.0
 40
9.0
 40
10.0
 40
10.0
 40
10.0
 40
11.0
 40
11.0
 40
11.0
 40
12.0
 40
12.0
 40
12.0
 40
13.0
 40
13.0
 40
13.0
 40
14.0
 40
14.0
 40
14.0
 40
15.0
 40
15.0
 40
15.0
 40
16.0
 40
16.0
 40
16.0
 40
17.0
 40
17.0
 40
17.0
 40
18.0
 40
18.0
 40
18.0
 40
18.0
 10
401.7530618331214
 20
95.80230832026928
 30
0.0
 10
401.7530618331214
 20
95.80230832026928
 30
0.0
 10
403.0584177821877
 20
95.80230832026928
 30
0.0
 10
403.0584177821877
 20
95.80230832026928
 30
0.0
 10
403.0584177821877
 20
95.80230832026928
 30
0.0
 10
401.2593846234932
 20
88.56140350500014
 30
0.0
 10
401.2593846234932
 20
88.56140350500014
 30
0.0
 10
401.0488821288656
 20
87.72701352628721
 30
0.0
 10
400.9410455604954
 20
87.07416298738725
 30
0.0
 10
400.9410455604954
 20
86.60426299937541
 30
0.0
 10
400.9410455604954
 20
85.96241912686132
 30
0.0
 10
401.1684032369274
 20
85.48045413915726
 30
0.0
 10
401.6204173920616
 20
85.1576624807257
 30
0.0
 10
402.0444915479086
 20
84.85758971060342
 30
0.0
 10
402.6005398670553
 20
84.70808249219544
 30
0.0
 10
403.289232627265
 20
84.70808249219544
 30
0.0
 10
404.5277372262652
 20
84.70808249219544
 30
0.0
 10
405.4410359057013
 20
85.1455974810335
 30
0.0
 10
406.0222020019843
 20
86.02066433581035
 30
0.0
 10
406.2471761147241
 20
86.36275133887021
 30
0.0
 10
406.4480400466771
 20
86.85642854849768
 30
0.0
 10
406.630602542017
 20
87.50444766877278
 30
0.0
 10
406.6537094858739
 20
87.58576130766863
 30
0.0
 10
406.7453258724254
 20
87.95025129836971
 30
0.0
 10
406.9044992016973
 20
88.59724572630796
 30
0.0
 10
406.9044992016973
 20
88.59724572630796
 30
0.0
 10
408.702509447444
 20
95.80230832026928
 30
0.0
 10
408.702509447444
 20
95.80230832026928
 30
0.0
 10
408.702509447444
 20
95.80230832026928
 30
0.0
 10
410.0092257891545
 20
95.80230832026928
 30
0.0
 10
410.0092257891545
 20
95.80230832026928
 30
0.0
 10
410.0092257891545
 20
95.80230832026928
 30
0.0
 10
408.2098475017303
 20
88.5803476711835
 30
0.0
 10
408.2098475017303
 20
88.5803476711835
 30
0.0
 10
407.9745447299556
 20
87.60265936279308
 30
0.0
 10
407.8012602899327
 20
86.94257687963318
 30
0.0
 10
407.6886261143635
 20
86.59597272180913
 30
0.0
 10
407.3657914121522
 20
85.60103358052547
 30
0.0
 10
406.8338730923892
 20
84.84587748868
 30
0.0
 10
406.0938864446013
 20
84.32807027966814
 30
0.0
 10
405.3169992421978
 20
83.79340029330871
 30
0.0
 10
404.3747650995688
 20
83.52571252236021
 30
0.0
 10
403.2702884610798
 20
83.52571252236021
 30
0.0
 10
402.0768765470818
 20
83.52571252236021
 30
0.0
 10
401.1515404595805
 20
83.81647195938676
 30
0.0
 10
400.4918107541887
 20
84.39975472228376
 30
0.0
 10
399.9154424355585
 20
84.91135304256514
 30
0.0
 10
399.6284577206579
 20
85.57485747008216
 30
0.0
 10
399.6284577206579
 20
86.39273744921631
 30
0.0
 10
399.6284577206579
 20
86.97944215647045
 30
0.0
 10
399.7576449395843
 20
87.78903185803831
 30
0.0
 10
400.0157094496151
 20
88.81737905402522
 30
0.0
 10
400.0157094496151
 20
88.81737905402522
 30
0.0
 10
401.7530618331214
 20
95.80230832026928
 30
0.0
 10
401.7530618331214
 20
95.80230832026928
 30
0.0
  0
SPLINE
  5
65
330
1F
100
AcDbEntity
  8
Ebene 1
 62
   250
370
    35
100
AcDbSpline
210
0.0
220
0.0
230
1.0
 70
    11
 71
     3
 72
    41
 73
    37
 74
     0
 42
0.0000000001
 43
0.0000000001
 12
1.0
 22
0.0
 32
0.0
 13
1.0
 23
0.0
 33
0.0
 40
0.0
 40
0.0
 40
0.0
 40
0.0
 40
1.0
 40
1.0
 40
1.0
 40
2.0
 40
2.0
 40
2.0
 40
3.0
 40
3.0
 40
3.0
 40
4.0
 40
4.0
 40
4.0
 40
5.0
 40
5.0
 40
5.0
 40
6.0
 40
6.0
 40
6.0
 40
7.0
 40
7.0
 40
7.0
 40
8.0
 40
8.0
 40
8.0
 40
9.0
 40
9.0
 40
9.0
 40
10.0
 40
10.0
 40
10.0
 40
11.0
 40
11.0
 40
11.0
 40
12.0
 40
12.0
 40
12.0
 40
12.0
 10
388.7791654974464
 20
92.31072563156918
 30
0.0
 10
388.7791654974464
 20
92.31072563156918
 30
0.0
 10
390.0586904648049
 20
92.31072563156918
 30
0.0
 10
390.0586904648049
 20
92.31072563156918
 30
0.0
 10
390.0586904648049
 20
92.31072563156918
 30
0.0
 10
390.4996626757763
 20
84.73323554710929
 30
0.0
 10
390.4996626757763
 20
84.73323554710929
 30
0.0
 10
390.4996626757763
 20
84.73323554710929
 30
0.0
 10
394.6792400065053
 20
92.31072563156918
 30
0.0
 10
394.6792400065053
 20
92.31072563156918
 30
0.0
 10
394.6792400065053
 20
92.31072563156918
 30
0.0
 10
395.9942469800436
 20
92.31072563156918
 30
0.0
 10
395.9942469800436
 20
92.31072563156918
 30
0.0
 10
395.9942469800436
 20
92.31072563156918
 30
0.0
 10
391.4084534859239
 20
84.36391250097594
 30
0.0
 10
391.4084534859239
 20
84.36391250097594
 30
0.0
 10
390.4948296203422
 20
82.78812476339986
 30
0.0
 10
389.7369218619021
 20
81.7290859015293
 30
0.0
 10
389.1319432662247
 20
81.18855980420817
 30
0.0
 10
388.3740427858588
 20
80.5060759327309
 30
0.0
 10
387.4066483102419
 20
80.16642149695176
 30
0.0
 10
386.2304872291359
 20
80.16642149695176
 30
0.0
 10
386.2304872291359
 20
80.16642149695176
 30
0.0
 10
385.9386694588043
 20
80.16642149695176
 30
0.0
 10
385.9386694588043
 20
80.16642149695176
 30
0.0
 10
385.9386694588043
 20
80.16642149695176
 30
0.0
 10
386.238742228926
 20
81.37390924392395
 30
0.0
 10
386.238742228926
 20
81.37390924392395
 30
0.0
 10
387.0445572083692
 20
81.36805313296225
 30
0.0
 10
387.6415983042459
 20
81.49724035188862
 30
0.0
 10
388.0295127387932
 20
81.76252923400943
 30
0.0
 10
388.4708377275354
 20
82.05639311540124
 30
0.0
 10
388.9765872301528
 20
82.69372143247496
 30
0.0
 10
389.5467393667548
 20
83.67521974076818
 30
0.0
 10
389.5467393667548
 20
83.67521974076818
 30
0.0
 10
388.7791654974464
 20
92.31072563156918
 30
0.0
 10
388.7791654974464
 20
92.31072563156918
 30
0.0
  0
SPLINE
  5
66
330
1F
100
AcDbEntity
  8
Ebene 1
 62
   250
370
    35
100
AcDbSpline
210
0.0
220
0.0
230
1.0
 70
    11
 71
     3
 72
    38
 73
    34
 74
     0
 42
0.0000000001
 43
0.0000000001
 12
1.0
 22
0.0
 32
0.0
 13
1.0
 23
0.0
 33
0.0
 40
0.0
 40
0.0
 40
0.0
 40
0.0
 40
1.0
 40
1.0
 40
1.0
 40
2.0
 40
2.0
 40
2.0
 40
3.0
 40
3.0
 40
3.0
 40
4.0
 40
4.0
 40
4.0
 40
5.0
 40
5.0
 40
5.0
 40
6.0
 40
6.0
 40
6.0
 40
7.0
 40
7.0
 40
7.0
 40
8.0
 40
8.0
 40
8.0
 40
9.0
 40
9.0
 40
9.0
 40
10.0
 40
10.0
 40
10.0
 40
11.0
 40
11.0
 40
11.0
 40
11.0
 10
385.7540255746248
 20
90.89855622315218
 30
0.0
 10
385.4946280812406
 20
91.22138315936063
 30
0.0
 10
385.1101427866753
 20
91.3850032233582
 30
0.0
 10
384.5988900485398
 20
91.3850032233582
 30
0.0
 10
384.2106228362218
 20
91.3850032233582
 30
0.0
 10
383.8275414571056
 20
91.26339899162205
 30
0.0
 10
383.4478820223483
 20
91.02294566442319
 30
0.0
 10
383.0682225875904
 20
90.78143400391801
 30
0.0
 10
382.731637318399
 20
90.44555600137068
 30
0.0
 10
382.4374206592391
 20
90.01767013451435
 30
0.0
 10
382.1549514997794
 20
89.60043986738101
 30
0.0
 10
381.9199733430279
 20
89.08852404710774
 30
0.0
 10
381.7311948439217
 20
88.48252239590146
 30
0.0
 10
381.5320517934468
 20
87.8417368566937
 30
0.0
 10
381.432850684869
 20
87.23538242771865
 30
0.0
 10
381.432850684869
 20
86.66522299782018
 30
0.0
 10
381.432850684869
 20
86.08405690153586
 30
0.0
 10
381.5847920698777
 20
85.60346774713004
 30
0.0
 10
381.8906927874801
 20
85.22828859003499
 30
0.0
 10
382.1731901104239
 20
84.8696547102956
 30
0.0
 10
382.572146489134
 20
84.68913832601208
 30
0.0
 10
383.090271198139
 20
84.68913832601208
 30
0.0
 10
383.942264787514
 20
84.68913832601208
 30
0.0
 10
384.6781239354054
 20
85.21382470151511
 30
0.0
 10
385.2948147530056
 20
86.2600930081559
 30
0.0
 10
385.547333079898
 20
86.701065219128
 30
0.0
 10
385.7588586300557
 20
87.22335270580334
 30
0.0
 10
385.9304144590142
 20
87.8296718570015
 30
0.0
 10
386.0940680659502
 20
88.42981739724607
 30
0.0
 10
386.1767591749517
 20
88.9727423833949
 30
0.0
 10
386.1767591749517
 20
89.461621815367
 30
0.0
 10
386.1767591749517
 20
90.07242124422865
 30
0.0
 10
386.0355069563319
 20
90.55198734310501
 30
0.0
 10
385.7540255746248
 20
90.89855622315218
 30
0.0
  0
SPLINE
  5
67
330
1F
100
AcDbEntity
  8
Ebene 1
 62
   250
370
    35
100
AcDbSpline
210
0.0
220
0.0
230
1.0
 70
    11
 71
     3
 72
    47
 73
    43
 74
     0
 42
0.0000000001
 43
0.0000000001
 12
1.0
 22
0.0
 32
0.0
 13
1.0
 23
0.0
 33
0.0
 40
0.0
 40
0.0
 40
0.0
 40
0.0
 40
1.0
 40
1.0
 40
1.0
 40
2.0
 40
2.0
 40
2.0
 40
3.0
 40
3.0
 40
3.0
 40
4.0
 40
4.0
 40
4.0
 40
5.0
 40
5.0
 40
5.0
 40
6.0
 40
6.0
 40
6.0
 40
7.0
 40
7.0
 40
7.0
 40
8.0
 40
8.0
 40
8.0
 40
9.0
 40
9.0
 40
9.0
 40
10.0
 40
10.0
 40
10.0
 40
11.0
 40
11.0
 40
11.0
 40
12.0
 40
12.0
 40
12.0
 40
13.0
 40
13.0
 40
13.0
 40
14.0
 40
14.0
 40
14.0
 40
14.0
 10
382.3581867723703
 20
95.8636563742597
 30
0.0
 10
382.3581867723703
 20
95.8636563742597
 30
0.0
 10
383.5753406302064
 20
95.8636563742597
 30
0.0
 10
383.5753406302064
 20
95.8636563742597
 30
0.0
 10
383.5753406302064
 20
95.8636563742597
 30
0.0
 10
382.4022839934663
 20
91.17245288283117
 30
0.0
 10
382.4022839934663
 20
91.17245288283117
 30
0.0
 10
382.7251109296773
 20
91.56072009514787
 30
0.0
 10
383.0334386995889
 20
91.84908064334674
 30
0.0
 10
383.3276553587489
 20
92.03647619412143
 30
0.0
 10
383.7985784022908
 20
92.33690174201249
 30
0.0
 10
384.3215714445043
 20
92.4860561826517
 30
0.0
 10
384.8986100408946
 20
92.4860561826517
 30
0.0
 10
385.7037194647964
 20
92.4860561826517
 30
0.0
 10
386.3296955641476
 20
92.222178411606
 30
0.0
 10
386.7761991596574
 20
91.69368377883659
 30
0.0
 10
387.2350924812834
 20
91.15798899431128
 30
0.0
 10
387.4641863643296
 20
90.4290090129091
 30
0.0
 10
387.4641863643296
 20
89.5057190364642
 30
0.0
 10
387.4641863643296
 20
88.61170961482784
 30
0.0
 10
387.281941368979
 20
87.70531769350738
 30
0.0
 10
386.9184816751122
 20
86.78961243909119
 30
0.0
 10
386.4468458347285
 20
85.61207552468821
 30
0.0
 10
385.8091647398841
 20
84.74530054680149
 30
0.0
 10
385.0037025382115
 20
84.18819389434779
 30
0.0
 10
384.4221483863803
 20
83.78789696011577
 30
0.0
 10
383.7844672915397
 20
83.58808363188011
 30
0.0
 10
383.090271198139
 20
83.58808363188011
 30
0.0
 10
381.9909451150734
 20
83.58808363188011
 30
0.0
 10
381.2378704120644
 20
84.07830361937354
 30
0.0
 10
380.8327122321891
 20
85.06086026097312
 30
0.0
 10
380.732445702736
 20
84.56718305134564
 30
0.0
 10
380.5767295955969
 20
84.13446584016296
 30
0.0
 10
380.3655568232059
 20
83.76376696073139
 30
0.0
 10
380.3655568232059
 20
83.76376696073139
 30
0.0
 10
379.2097157415834
 20
83.76376696073139
 30
0.0
 10
379.2097157415834
 20
83.76376696073139
 30
0.0
 10
379.3919677881046
 20
84.16893378071715
 30
0.0
 10
379.6355537862762
 20
84.9747119298376
 30
0.0
 10
379.9414473895814
 20
86.18085912128845
 30
0.0
 10
379.9414473895814
 20
86.18085912128845
 30
0.0
 10
382.3581867723703
 20
95.8636563742597
 30
0.0
 10
382.3581867723703
 20
95.8636563742597
 30
0.0
  0
POLYLINE
  5
68
330
1F
100
AcDbEntity
  8
Ebene 1
 62
   250
370
    35
100
AcDb2dPolyline
 66
     1
 10
0.0
 20
0.0
 30
0.0
  0
VERTEX
  5
69
330
68
100
AcDbEntity
  8
Ebene 1
 62
   250
370
    35
100
AcDbVertex
100
AcDb2dVertex
 10
246.6860637065142
 20
110.1360905235276
 30
0.0
  0
VERTEX
  5
6A
330
68
100
AcDbEntity
  8
Ebene 1
 62
   250
370
    35
100
AcDbVertex
100
AcDb2dVertex
 10
242.1164979897602
 20
101.9510465656788
 30
0.0
  0
VERTEX
  5
6B
330
68
100
AcDbEntity
  8
Ebene 1
 62
   250
370
    35
100
AcDbVertex
100
AcDb2dVertex
 10
246.1320967762026
 20
101.9510465656788
 30
0.0
  0
VERTEX
  5
6C
330
68
100
AcDbEntity
  8
Ebene 1
 62
   250
370
    35
100
AcDbVertex
100
AcDb2dVertex
 10
253.2775399272405
 20
110.1360905235276
 30
0.0
  0
VERTEX
  5
6D
330
68
100
AcDbEntity
  8
Ebene 1
 62
   250
370
    35
100
AcDbVertex
100
AcDb2dVertex
 10
246.6860637065142
 20
110.1360905235276
 30
0.0
  0
SEQEND
  5
6E
330
68
100
AcDbEntity
  8
Ebene 1
 62
   250
370
    35
  0
SPLINE
  5
6F
330
1F
100
AcDbEntity
  8
Ebene 1
 62
   250
370
    35
100
AcDbSpline
210
0.0
220
0.0
230
1.0
 70
    11
 71
     3
 72
    53
 73
    49
 74
     0
 42
0.0000000001
 43
0.0000000001
 12
1.0
 22
0.0
 32
0.0
 13
1.0
 23
0.0
 33
0.0
 40
0.0
 40
0.0
 40
0.0
 40
0.0
 40
1.0
 40
1.0
 40
1.0
 40
2.0
 40
2.0
 40
2.0
 40
3.0
 40
3.0
 40
3.0
 40
4.0
 40
4.0
 40
4.0
 40
5.0
 40
5.0
 40
5.0
 40
6.0
 40
6.0
 40
6.0
 40
7.0
 40
7.0
 40
7.0
 40
8.0
 40
8.0
 40
8.0
 40
9.0
 40
9.0
 40
9.0
 40
10.0
 40
10.0
 40
10.0
 40
11.0
 40
11.0
 40
11.0
 40
12.0
 40
12.0
 40
12.0
 40
13.0
 40
13.0
 40
13.0
 40
14.0
 40
14.0
 40
14.0
 40
15.0
 40
15.0
 40
15.0
 40
16.0
 40
16.0
 40
16.0
 40
16.0
 10
174.9905085911757
 20
91.75185553261785
 30
0.0
 10
174.9643324807325
 20
91.42458127867573
 30
0.0
 10
174.9512444255108
 20
91.17029906294079
 30
0.0
 10
174.9512444255108
 20
90.9904882341948
 30
0.0
 10
174.9512444255108
 20
90.02310103665269
 30
0.0
 10
175.2437324736044
 20
89.24794244531752
 30
0.0
 10
175.8304416227089
 20
88.66123773806338
 30
0.0
 10
176.4050768884204
 20
88.10074441902943
 30
0.0
 10
177.1933235349773
 20
87.82201470391819
 30
0.0
 10
178.1975805110063
 20
87.82201470391819
 30
0.0
 10
179.1615059847647
 20
87.82201470391819
 30
0.0
 10
179.9376876316294
 20
88.10074441902943
 30
0.0
 10
180.5243923388835
 20
88.66123773806338
 30
0.0
 10
180.7975834430249
 20
88.9365102310406
 30
0.0
 10
181.0842153801568
 20
89.34474466507011
 30
0.0
 10
181.3859860657649
 20
89.89493687325576
 30
0.0
 10
181.3859860657649
 20
89.89493687325576
 30
0.0
 10
187.647791619755
 20
89.84844076333087
 30
0.0
 10
187.647791619755
 20
89.84844076333087
 30
0.0
 10
185.5927858206891
 20
85.10248616218803
 30
0.0
 10
182.3819789581592
 20
83.20524732170173
 30
0.0
 10
177.5722774141982
 20
83.20524732170173
 30
0.0
 10
174.9254210928363
 20
83.20524732170173
 30
0.0
 10
172.805650035805
 20
83.83844813888078
 30
0.0
 10
171.2160686874697
 20
85.10350921771749
 30
0.0
 10
169.3257442912515
 20
86.60210917948501
 30
0.0
 10
168.3790298709597
 20
88.7150010700251
 30
0.0
 10
168.3790298709597
 20
91.43869238942683
 30
0.0
 10
168.3790298709597
 20
93.32831123010753
 30
0.0
 10
168.8293154150275
 20
95.14698886510233
 30
0.0
 10
169.729855513123
 20
96.89468280578848
 30
0.0
 10
170.9680306382422
 20
99.28076580046998
 30
0.0
 10
172.7226061490348
 20
101.0077893675211
 30
0.0
 10
174.9905085911757
 20
102.0771293402399
 30
0.0
 10
176.5287607741539
 20
102.8075204327172
 30
0.0
 10
178.2419907304458
 20
103.1726833075404
 30
0.0
 10
180.1333734599703
 20
103.1726833075404
 30
0.0
 10
182.6761956173198
 20
103.1726833075404
 30
0.0
 10
184.7101711209843
 20
102.5460062727223
 30
0.0
 10
186.2356527487327
 20
101.2950915824136
 30
0.0
 10
187.9805974264376
 20
99.88641467390748
 30
0.0
 10
188.8546043485843
 20
97.93819944583282
 30
0.0
 10
188.8546043485843
 20
95.44808228713877
 30
0.0
 10
188.8546043485843
 20
94.24884953995597
 30
0.0
 10
188.6720418532419
 20
93.0148329047717
 30
0.0
 10
188.3068463070032
 20
91.75185553261785
 30
0.0
 10
188.3068463070032
 20
91.75185553261785
 30
0.0
 10
174.9905085911757
 20
91.75185553261785
 30
0.0
 10
174.9905085911757
 20
91.75185553261785
 30
0.0
  0
SPLINE
  5
70
330
1F
100
AcDbEntity
  8
Ebene 1
 62
   250
370
    35
100
AcDbSpline
210
0.0
220
0.0
230
1.0
 70
    11
 71
     3
 72
    14
 73
    10
 74
     0
 42
0.0000000001
 43
0.0000000001
 12
1.0
 22
0.0
 32
0.0
 13
1.0
 23
0.0
 33
0.0
 40
0.0
 40
0.0
 40
0.0
 40
0.0
 40
1.0
 40
1.0
 40
1.0
 40
2.0
 40
2.0
 40
2.0
 40
3.0
 40
3.0
 40
3.0
 40
3.0
 10
175.5579163544778
 20
95.525940340708
 30
0.0
 10
175.5579163544778
 20
95.525940340708
 30
0.0
 10
182.7540582876447
 20
95.525940340708
 30
0.0
 10
182.7540582876447
 20
95.525940340708
 30
0.0
 10
182.6761956173198
 20
97.67672056361481
 30
0.0
 10
181.6385350882371
 20
98.75297498060172
 30
0.0
 10
179.6434709724688
 20
98.75297498060172
 30
0.0
 10
177.8065571304435
 20
98.75297498060172
 30
0.0
 10
176.4440235540935
 20
97.67672056361481
 30
0.0
 10
175.5579163544778
 20
95.525940340708
 30
0.0
  0
ENDSEC
  0
SECTION
  2
OBJECTS
  0
DICTIONARY
  5
C
330
0
100
AcDbDictionary
281
     1
  3
ACAD_GROUP
350
D
  3
ACAD_LAYOUT
350
1A
  3
ACAD_MATERIAL
350
3B
  3
ACAD_MLEADERSTYLE
350
92
  3
ACAD_MLINESTYLE
350
17
  3
ACAD_PLOTSETTINGS
350
19
  3
ACAD_PLOTSTYLENAME
350
E
  3
ACAD_TABLESTYLE
350
91
  3
ACAD_VISUALSTYLE
350
2A
  0
SUN
  5
3F
330
29
100
AcDbSun
 90
        1
290
     0
 63
     7
421
 16777215
 40
1.0
291
     1
 91
  2455826
 92
 54000000
292
     0
 70
     2
 71
   256
280
     1
  0
DICTIONARY
  5
D
102
{ACAD_REACTORS
330
C
102
}
330
C
100
AcDbDictionary
281
     1
  0
DICTIONARY
  5
1A
102
{ACAD_REACTORS
330
C
102
}
330
C
100
AcDbDictionary
281
     1
  3
Layout1
350
1E
  3
Layout2
350
26
  3
Model
350
22
  0
DICTIONARY
  5
3B
102
{ACAD_REACTORS
330
C
102
}
330
C
100
AcDbDictionary
281
     1
  3
ByBlock
350
3D
  3
ByLayer
350
3C
  3
Global
350
3E
  0
DICTIONARY
  5
92
102
{ACAD_REACTORS
330
C
102
}
330
C
100
AcDbDictionary
281
     1
  0
DICTIONARY
  5
17
102
{ACAD_REACTORS
330
C
102
}
330
C
100
AcDbDictionary
281
     1
  3
Standard
350
18
  0
DICTIONARY
  5
19
102
{ACAD_REACTORS
330
C
102
}
330
C
100
AcDbDictionary
281
     1
  0
ACDBDICTIONARYWDFLT
  5
E
102
{ACAD_REACTORS
330
C
102
}
330
C
100
AcDbDictionary
281
     1
  3
Normal
350
F
100
AcDbDictionaryWithDefault
340
F
  0
DICTIONARY
  5
91
102
{ACAD_REACTORS
330
C
102
}
330
C
100
AcDbDictionary
281
     1
  0
DICTIONARY
  5
2A
102
{ACAD_REACTORS
330
C
102
}
330
C
100
AcDbDictionary
281
     1
  3
2dWireframe
350
2F
  3
3D Hidden
350
31
  3
3dWireframe
350
30
  3
Basic
350
32
  3
Brighten
350
36
  3
ColorChange
350
3A
  3
Conceptual
350
34
  3
Dim
350
35
  3
Facepattern
350
39
  3
Flat
350
2B
  3
FlatWithEdges
350
2C
  3
Gouraud
350
2D
  3
GouraudWithEdges
350
2E
  3
Linepattern
350
38
  3
Realistic
350
33
  3
Thicken
350
37
  0
LAYOUT
  5
1E
102
{ACAD_REACTORS
330
1A
102
}
330
1A
100
AcDbPlotSettings
  1

  2
none_device
  4

  6

 40
0.0
 41
0.0
 42
0.0
 43
0.0
 44
0.0
 45
0.0
 46
0.0
 47
0.0
 48
0.0
 49
0.0
140
0.0
141
0.0
142
1.0
143
1.0
 70
   688
 72
     0
 73
     0
 74
     5
  7

 75
    16
 76
     0
 77
     2
 78
   300
147
1.0
148
0.0
149
0.0
100
AcDbLayout
  1
Layout1
 70
     1
 71
     1
 10
0.0
 20
0.0
 11
12.0
 21
9.0
 12
0.0
 22
0.0
 32
0.0
 14
1.000000000000000E+20
 24
1.000000000000000E+20
 34
1.000000000000000E+20
 15
-1.000000000000000E+20
 25
-1.000000000000000E+20
 35
-1.000000000000000E+20
146
0.0
 13
0.0
 23
0.0
 33
0.0
 16
1.0
 26
0.0
 36
0.0
 17
0.0
 27
1.0
 37
0.0
 76
     0
330
1B
  0
LAYOUT
  5
26
102
{ACAD_REACTORS
330
1A
102
}
330
1A
100
AcDbPlotSettings
  1

  2
none_device
  4

  6

 40
0.0
 41
0.0
 42
0.0
 43
0.0
 44
0.0
 45
0.0
 46
0.0
 47
0.0
 48
0.0
 49
0.0
140
0.0
141
0.0
142
1.0
143
1.0
 70
   688
 72
     0
 73
     0
 74
     5
  7

 75
    16
 76
     0
 77
     2
 78
   300
147
1.0
148
0.0
149
0.0
100
AcDbLayout
  1
Layout2
 70
     1
 71
     2
 10
0.0
 20
0.0
 11
0.0
 21
0.0
 12
0.0
 22
0.0
 32
0.0
 14
0.0
 24
0.0
 34
0.0
 15
0.0
 25
0.0
 35
0.0
146
0.0
 13
0.0
 23
0.0
 33
0.0
 16
1.0
 26
0.0
 36
0.0
 17
0.0
 27
1.0
 37
0.0
 76
     0
330
23
  0
LAYOUT
  5
22
102
{ACAD_REACTORS
330
1A
102
}
330
1A
100
AcDbPlotSettings
  1

  2
none_device
  4

  6

 40
0.0
 41
0.0
 42
0.0
 43
0.0
 44
0.0
 45
0.0
 46
0.0
 47
0.0
 48
0.0
 49
0.0
140
0.0
141
0.0
142
1.0
143
1.0
 70
  1712
 72
     0
 73
     0
 74
     0
  7

 75
     0
 76
     0
 77
     2
 78
   300
147
1.0
148
0.0
149
0.0
100
AcDbLayout
  1
Model
 70
     1
 71
     0
 10
0.0
 20
0.0
 11
12.0
 21
9.0
 12
0.0
 22
0.0
 32
0.0
 14
1.000000000000000E+20
 24
1.000000000000000E+20
 34
1.000000000000000E+20
 15
-1.000000000000000E+20
 25
-1.000000000000000E+20
 35
-1.000000000000000E+20
146
0.0
 13
0.0
 23
0.0
 33
0.0
 16
1.0
 26
0.0
 36
0.0
 17
0.0
 27
1.0
 37
0.0
 76
     0
330
1F
331
29
  0
MATERIAL
  5
3D
102
{ACAD_REACTORS
330
3B
102
}
330
3B
100
AcDbMaterial
  1
ByBlock
 72
     1
 94
      127
  0
MATERIAL
  5
3C
102
{ACAD_REACTORS
330
3B
102
}
330
3B
100
AcDbMaterial
  1
ByLayer
 72
     1
 94
      127
  0
MATERIAL
  5
3E
102
{ACAD_REACTORS
330
3B
102
}
330
3B
100
AcDbMaterial
  1
Global
 72
     1
 94
      127
  0
MLINESTYLE
  5
18
102
{ACAD_REACTORS
330
17
102
}
330
17
100
AcDbMlineStyle
  2
Standard
 70
     0
  3

 62
   256
 51
90.0
 52
90.0
 71
     2
 49
0.5
 62
   256
  6
BYLAYER
 49
-0.5
 62
   256
  6
BYLAYER
  0
ACDBPLACEHOLDER
  5
F
102
{ACAD_REACTORS
330
E
102
}
330
E
  0
VISUALSTYLE
  5
2F
102
{ACAD_REACTORS
330
2A
102
}
102
{ACAD_XDICTIONARY
360
79
102
}
330
2A
100
AcDbVisualStyle
  2
2dWireframe
 70
     4
 71
     0
 72
     2
 73
     0
 90
        0
 40
-0.6
 41
-30.0
 62
     5
 63
     7
421
 16777215
 74
     1
 91
        4
 64
     7
 65
   257
 75
     1
175
     1
 42
1.0
 92
        0
 66
   257
 43
1.0
 76
     1
 77
     6
 78
     2
 67
     7
 79
     5
170
     0
171
     0
290
     0
174
     0
 93
        1
 44
0.0
173
     0
291
     0
 45
0.0
  0
VISUALSTYLE
  5
31
102
{ACAD_REACTORS
330
2A
102
}
102
{ACAD_XDICTIONARY
360
7D
102
}
330
2A
100
AcDbVisualStyle
  2
3D Hidden
 70
     6
 71
     1
 72
     2
 73
     2
 90
        0
 40
-0.6
 41
-30.0
 62
     5
 63
     7
421
 16777215
 74
     2
 91
        2
 64
     7
 65
   257
 75
     2
175
     1
 42
40.0
 92
        0
 66
   257
 43
1.0
 76
     1
 77
     6
 78
     2
 67
     7
 79
     3
170
     0
171
     0
290
     0
174
     0
 93
        1
 44
0.0
173
     0
291
     0
 45
0.0
  0
VISUALSTYLE
  5
30
102
{ACAD_REACTORS
330
2A
102
}
102
{ACAD_XDICTIONARY
360
7B
102
}
330
2A
100
AcDbVisualStyle
  2
3dWireframe
 70
     5
 71
     0
 72
     2
 73
     0
 90
        0
 40
-0.6
 41
-30.0
 62
     5
 63
     7
421
 16777215
 74
     1
 91
        4
 64
     7
 65
   257
 75
     1
175
     1
 42
1.0
 92
        0
 66
   257
 43
1.0
 76
     1
 77
     6
 78
     2
 67
     7
 79
     5
170
     0
171
     0
290
     0
174
     0
 93
        1
 44
0.0
173
     0
291
     0
 45
0.0
  0
VISUALSTYLE
  5
32
102
{ACAD_REACTORS
330
2A
102
}
102
{ACAD_XDICTIONARY
360
7F
102
}
330
2A
100
AcDbVisualStyle
  2
Basic
 70
     7
 71
     1
 72
     0
 73
     1
 90
        0
 40
-0.6
 41
-30.0
 62
     5
 63
     7
421
 16777215
 74
     0
 91
        4
 64
     7
 65
   257
 75
     1
175
     1
 42
1.0
 92
        8
 66
     7
 43
1.0
 76
     1
 77
     6
 78
     2
 67
     7
 79
     5
170
     0
171
     0
290
     0
174
     0
 93
        1
 44
0.0
173
     0
291
     1
 45
0.0
  0
VISUALSTYLE
  5
36
102
{ACAD_REACTORS
330
2A
102
}
102
{ACAD_XDICTIONARY
360
87
102
}
330
2A
100
AcDbVisualStyle
  2
Brighten
 70
    12
 71
     2
 72
     2
 73
     0
 90
        0
 40
-0.6
 41
-30.0
 62
     5
 63
     7
421
 16777215
 74
     1
 91
        4
 64
     7
 65
   257
 75
     1
175
     1
 42
1.0
 92
        8
 66
     7
 43
1.0
 76
     1
 77
     6
 78
     2
 67
     7
 79
     5
170
     0
171
     0
290
     0
174
     0
 93
        1
 44
50.0
173
     0
291
     1
 45
0.0
  0
VISUALSTYLE
  5
3A
102
{ACAD_REACTORS
330
2A
102
}
102
{ACAD_XDICTIONARY
360
8F
102
}
330
2A
100
AcDbVisualStyle
  2
ColorChange
 70
    16
 71
     2
 72
     2
 73
     3
 90
        0
 40
-0.6
 41
-30.0
 62
     5
 63
     8
421
  8421504
 74
     1
 91
        4
 64
     7
 65
   257
 75
     1
175
     1
 42
1.0
 92
        8
 66
     8
424
  8421504
 43
1.0
 76
     1
 77
     6
 78
     2
 67
     7
 79
     5
170
     0
171
     0
290
     0
174
     0
 93
        1
 44
0.0
173
     0
291
     1
 45
0.0
  0
VISUALSTYLE
  5
34
102
{ACAD_REACTORS
330
2A
102
}
102
{ACAD_XDICTIONARY
360
83
102
}
330
2A
100
AcDbVisualStyle
  2
Conceptual
 70
     9
 71
     3
 72
     2
 73
     0
 90
        0
 40
-0.6
 41
-30.0
 62
     5
 63
     7
421
 16777215
 74
     2
 91
        2
 64
     7
 65
   257
 75
     1
175
     1
 42
40.0
 92
        8
 66
     7
 43
1.0
 76
     1
 77
     6
 78
     2
 67
     7
 79
     3
170
     0
171
     0
290
     0
174
     0
 93
        1
 44
0.0
173
     0
291
     0
 45
0.0
  0
VISUALSTYLE
  5
35
102
{ACAD_REACTORS
330
2A
102
}
102
{ACAD_XDICTIONARY
360
85
102
}
330
2A
100
AcDbVisualStyle
  2
Dim
 70
    11
 71
     2
 72
     2
 73
     0
 90
        0
 40
-0.6
 41
-30.0
 62
     5
 63
     7
421
 16777215
 74
     1
 91
        4
 64
     7
 65
   257
 75
     1
175
     1
 42
1.0
 92
        8
 66
     7
 43
1.0
 76
     1
 77
     6
 78
     2
 67
     7
 79
     5
170
     0
171
     0
290
     0
174
     0
 93
        1
 44
-50.0
173
     0
291
     1
 45
0.0
  0
VISUALSTYLE
  5
39
102
{ACAD_REACTORS
330
2A
102
}
102
{ACAD_XDICTIONARY
360
8D
102
}
330
2A
100
AcDbVisualStyle
  2
Facepattern
 70
    15
 71
     2
 72
     2
 73
     0
 90
        0
 40
-0.6
 41
-30.0
 62
     5
 63
     7
421
 16777215
 74
     1
 91
        4
 64
     7
 65
   257
 75
     1
175
     1
 42
1.0
 92
        8
 66
     7
 43
1.0
 76
     1
 77
     6
 78
     2
 67
     7
 79
     5
170
     0
171
     0
290
     0
174
     0
 93
        1
 44
0.0
173
     0
291
     1
 45
0.0
  0
VISUALSTYLE
  5
2B
102
{ACAD_REACTORS
330
2A
102
}
102
{ACAD_XDICTIONARY
360
71
102
}
330
2A
100
AcDbVisualStyle
  2
Flat
 70
     0
 71
     2
 72
     1
 73
     1
 90
        2
 40
-0.6
 41
30.0
 62
     5
 63
     7
421
 16777215
 74
     0
 91
        4
 64
     7
 65
   257
 75
     1
175
     1
 42
1.0
 92
        8
 66
     7
 43
1.0
 76
     1
 77
     6
 78
     2
 67
     7
 79
     5
170
     0
171
     0
290
     0
174
     0
 93
       13
 44
0.0
173
     0
291
     1
 45
0.0
  0
VISUALSTYLE
  5
2C
102
{ACAD_REACTORS
330
2A
102
}
102
{ACAD_XDICTIONARY
360
73
102
}
330
2A
100
AcDbVisualStyle
  2
FlatWithEdges
 70
     1
 71
     2
 72
     1
 73
     1
 90
        2
 40
-0.6
 41
30.0
 62
     5
 63
     7
421
 16777215
 74
     1
 91
        4
 64
     7
 65
   257
 75
     1
175
     1
 42
1.0
 92
        0
 66
   257
 43
1.0
 76
     1
 77
     6
 78
     2
 67
     7
 79
     5
170
     0
171
     0
290
     0
174
     0
 93
       13
 44
0.0
173
     0
291
     1
 45
0.0
  0
VISUALSTYLE
  5
2D
102
{ACAD_REACTORS
330
2A
102
}
102
{ACAD_XDICTIONARY
360
75
102
}
330
2A
100
AcDbVisualStyle
  2
Gouraud
 70
     2
 71
     2
 72
     2
 73
     1
 90
        2
 40
-0.6
 41
30.0
 62
     5
 63
     7
421
 16777215
 74
     0
 91
        4
 64
     7
 65
   257
 75
     1
175
     1
 42
1.0
 92
        0
 66
     7
 43
1.0
 76
     1
 77
     6
 78
     2
 67
     7
 79
     5
170
     0
171
     0
290
     0
174
     0
 93
       13
 44
0.0
173
     0
291
     1
 45
0.0
  0
VISUALSTYLE
  5
2E
102
{ACAD_REACTORS
330
2A
102
}
102
{ACAD_XDICTIONARY
360
77
102
}
330
2A
100
AcDbVisualStyle
  2
GouraudWithEdges
 70
     3
 71
     2
 72
     2
 73
     1
 90
        2
 40
-0.6
 41
30.0
 62
     5
 63
     7
421
 16777215
 74
     1
 91
        4
 64
     7
 65
   257
 75
     1
175
     1
 42
1.0
 92
        0
 66
   257
 43
1.0
 76
     1
 77
     6
 78
     2
 67
     7
 79
     5
170
     0
171
     0
290
     0
174
     0
 93
       13
 44
0.0
173
     0
291
     1
 45
0.0
  0
VISUALSTYLE
  5
38
102
{ACAD_REACTORS
330
2A
102
}
102
{ACAD_XDICTIONARY
360
8B
102
}
330
2A
100
AcDbVisualStyle
  2
Linepattern
 70
    14
 71
     2
 72
     2
 73
     0
 90
        0
 40
-0.6
 41
-30.0
 62
     5
 63
     7
421
 16777215
 74
     1
 91
        4
 64
     7
 65
   257
 75
     7
175
     7
 42
1.0
 92
        8
 66
     7
 43
1.0
 76
     1
 77
     6
 78
     2
 67
     7
 79
     5
170
     0
171
     0
290
     0
174
     0
 93
        1
 44
0.0
173
     0
291
     1
 45
0.0
  0
VISUALSTYLE
  5
33
102
{ACAD_REACTORS
330
2A
102
}
102
{ACAD_XDICTIONARY
360
81
102
}
330
2A
100
AcDbVisualStyle
  2
Realistic
 70
     8
 71
     2
 72
     2
 73
     0
 90
        0
 40
-0.6
 41
-30.0
 62
     5
 63
     7
421
 16777215
 74
     1
 91
        0
 64
     7
 65
   257
 75
     1
175
     1
 42
1.0
 92
        8
 66
     8
424
  7895160
 43
1.0
 76
     1
 77
     6
 78
     2
 67
     7
 79
     5
170
     0
171
     0
290
     0
174
     0
 93
       13
 44
0.0
173
     0
291
     0
 45
0.0
  0
VISUALSTYLE
  5
37
102
{ACAD_REACTORS
330
2A
102
}
102
{ACAD_XDICTIONARY
360
89
102
}
330
2A
100
AcDbVisualStyle
  2
Thicken
 70
    13
 71
     2
 72
     2
 73
     0
 90
        0
 40
-0.6
 41
-30.0
 62
     5
 63
     7
421
 16777215
 74
     1
 91
        4
 64
     7
 65
   257
 75
     1
175
     1
 42
1.0
 92
       12
 66
     7
 43
1.0
 76
     1
 77
     6
 78
     2
 67
     7
 79
     5
170
     0
171
     0
290
     0
174
     0
 93
        1
 44
0.0
173
     0
291
     1
 45
0.0
  0
DICTIONARY
  5
79
330
2F
100
AcDbDictionary
280
     1
281
     1
  3
ACAD_XREC_ROUNDTRIP
360
7A
  0
DICTIONARY
  5
7D
330
31
100
AcDbDictionary
280
     1
281
     1
  3
ACAD_XREC_ROUNDTRIP
360
7E
  0
DICTIONARY
  5
7B
330
30
100
AcDbDictionary
280
     1
281
     1
  3
ACAD_XREC_ROUNDTRIP
360
7C
  0
DICTIONARY
  5
7F
330
32
100
AcDbDictionary
280
     1
281
     1
  3
ACAD_XREC_ROUNDTRIP
360
80
  0
DICTIONARY
  5
87
330
36
100
AcDbDictionary
280
     1
281
     1
  3
ACAD_XREC_ROUNDTRIP
360
88
  0
DICTIONARY
  5
8F
330
3A
100
AcDbDictionary
280
     1
281
     1
  3
ACAD_XREC_ROUNDTRIP
360
90
  0
DICTIONARY
  5
83
330
34
100
AcDbDictionary
280
     1
281
     1
  3
ACAD_XREC_ROUNDTRIP
360
84
  0
DICTIONARY
  5
85
330
35
100
AcDbDictionary
280
     1
281
     1
  3
ACAD_XREC_ROUNDTRIP
360
86
  0
DICTIONARY
  5
8D
330
39
100
AcDbDictionary
280
     1
281
     1
  3
ACAD_XREC_ROUNDTRIP
360
8E
  0
DICTIONARY
  5
71
330
2B
100
AcDbDictionary
280
     1
281
     1
  3
ACAD_XREC_ROUNDTRIP
360
72
  0
DICTIONARY
  5
73
330
2C
100
AcDbDictionary
280
     1
281
     1
  3
ACAD_XREC_ROUNDTRIP
360
74
  0
DICTIONARY
  5
75
330
2D
100
AcDbDictionary
280
     1
281
     1
  3
ACAD_XREC_ROUNDTRIP
360
76
  0
DICTIONARY
  5
77
330
2E
100
AcDbDictionary
280
     1
281
     1
  3
ACAD_XREC_ROUNDTRIP
360
78
  0
DICTIONARY
  5
8B
330
38
100
AcDbDictionary
280
     1
281
     1
  3
ACAD_XREC_ROUNDTRIP
360
8C
  0
DICTIONARY
  5
81
330
33
100
AcDbDictionary
280
     1
281
     1
  3
ACAD_XREC_ROUNDTRIP
360
82
  0
DICTIONARY
  5
89
330
37
100
AcDbDictionary
280
     1
281
     1
  3
ACAD_XREC_ROUNDTRIP
360
8A
  0
XRECORD
  5
7A
102
{ACAD_REACTORS
330
79
102
}
330
79
100
AcDbXrecord
280
     1
102
RTVSPropertyOp0
 70
     1
102
RTVSPropertyOp1
 70
     1
102
RTVSPropertyOp2
 70
     1
102
RTVSPropertyOp3
 70
     1
102
RTVSPropertyOp4
 70
     1
102
RTVSPropertyOp5
 70
     1
102
RTVSPropertyOp6
 70
     1
102
RTVSPropertyOp7
 70
     1
102
RTVSPropertyOp8
 70
     1
102
RTVSPropertyOp9
 70
     1
102
RTVSPropertyOp10
 70
     1
102
RTVSPropertyOp11
 70
     1
102
RTVSPropertyOp12
 70
     1
102
RTVSPropertyOp13
 70
     1
102
RTVSPropertyOp14
 70
     1
102
RTVSPropertyOp15
 70
     1
102
RTVSPropertyOp16
 70
     1
102
RTVSPropertyOp17
 70
     1
102
RTVSPropertyOp18
 70
     1
102
RTVSPropertyOp19
 70
     1
102
RTVSPropertyOp20
 70
     1
102
RTVSPropertyOp21
 70
     1
102
RTVSPropertyOp22
 70
     1
102
RTVSPropertyOp23
 70
     1
102
RTVSPropertyOp24
 70
     1
102
RTVSPropertyOp25
 70
     1
102
RTVSPropertyOp26
 70
     1
102
RTVSPropertyOp27
 70
     1
102
RTVSPropertyOp28
 70
     1
102
RTVSPropertyOp29
 70
     1
102
RTVSPropertyOp30
 70
     1
102
RTVSPropertyOp31
 70
     1
102
RTVSPropertyOp32
 70
     1
  0
XRECORD
  5
7E
102
{ACAD_REACTORS
330
7D
102
}
330
7D
100
AcDbXrecord
280
     1
102
RTVSPropertyOp0
 70
     1
102
RTVSPropertyOp1
 70
     1
102
RTVSPropertyOp2
 70
     1
102
RTVSPropertyOp3
 70
     1
102
RTVSPropertyOp4
 70
     1
102
RTVSPropertyOp5
 70
     1
102
RTVSPropertyOp6
 70
     1
102
RTVSPropertyOp7
 70
     1
102
RTVSPropertyOp8
 70
     1
102
RTVSPropertyOp9
 70
     1
102
RTVSPropertyOp10
 70
     1
102
RTVSPropertyOp11
 70
     1
102
RTVSPropertyOp12
 70
     1
102
RTVSPropertyOp13
 70
     1
102
RTVSPropertyOp14
 70
     1
102
RTVSPropertyOp15
 70
     1
102
RTVSPropertyOp16
 70
     1
102
RTVSPropertyOp17
 70
     1
102
RTVSPropertyOp18
 70
     1
102
RTVSPropertyOp19
 70
     1
102
RTVSPropertyOp20
 70
     1
102
RTVSPropertyOp21
 70
     1
102
RTVSPropertyOp22
 70
     1
102
RTVSPropertyOp23
 70
     1
102
RTVSPropertyOp24
 70
     1
102
RTVSPropertyOp25
 70
     1
102
RTVSPropertyOp26
 70
     1
102
RTVSPropertyOp27
 70
     1
102
RTVSPropertyOp28
 70
     1
102
RTVSPropertyOp29
 70
     1
102
RTVSPropertyOp30
 70
     1
102
RTVSPropertyOp31
 70
     1
102
RTVSPropertyOp32
 70
     1
  0
XRECORD
  5
7C
102
{ACAD_REACTORS
330
7B
102
}
330
7B
100
AcDbXrecord
280
     1
102
RTVSPropertyOp0
 70
     1
102
RTVSPropertyOp1
 70
     1
102
RTVSPropertyOp2
 70
     1
102
RTVSPropertyOp3
 70
     1
102
RTVSPropertyOp4
 70
     1
102
RTVSPropertyOp5
 70
     1
102
RTVSPropertyOp6
 70
     1
102
RTVSPropertyOp7
 70
     1
102
RTVSPropertyOp8
 70
     1
102
RTVSPropertyOp9
 70
     1
102
RTVSPropertyOp10
 70
     1
102
RTVSPropertyOp11
 70
     1
102
RTVSPropertyOp12
 70
     1
102
RTVSPropertyOp13
 70
     1
102
RTVSPropertyOp14
 70
     1
102
RTVSPropertyOp15
 70
     1
102
RTVSPropertyOp16
 70
     1
102
RTVSPropertyOp17
 70
     1
102
RTVSPropertyOp18
 70
     1
102
RTVSPropertyOp19
 70
     1
102
RTVSPropertyOp20
 70
     1
102
RTVSPropertyOp21
 70
     1
102
RTVSPropertyOp22
 70
     1
102
RTVSPropertyOp23
 70
     1
102
RTVSPropertyOp24
 70
     1
102
RTVSPropertyOp25
 70
     1
102
RTVSPropertyOp26
 70
     1
102
RTVSPropertyOp27
 70
     1
102
RTVSPropertyOp28
 70
     1
102
RTVSPropertyOp29
 70
     1
102
RTVSPropertyOp30
 70
     1
102
RTVSPropertyOp31
 70
     1
102
RTVSPropertyOp32
 70
     1
  0
XRECORD
  5
80
102
{ACAD_REACTORS
330
7F
102
}
330
7F
100
AcDbXrecord
280
     1
102
RTVSPropertyOp0
 70
     1
102
RTVSPropertyOp1
 70
     1
102
RTVSPropertyOp2
 70
     1
102
RTVSPropertyOp3
 70
     1
102
RTVSPropertyOp4
 70
     1
102
RTVSPropertyOp5
 70
     1
102
RTVSPropertyOp6
 70
     1
102
RTVSPropertyOp7
 70
     1
102
RTVSPropertyOp8
 70
     1
102
RTVSPropertyOp9
 70
     1
102
RTVSPropertyOp10
 70
     1
102
RTVSPropertyOp11
 70
     1
102
RTVSPropertyOp12
 70
     1
102
RTVSPropertyOp13
 70
     1
102
RTVSPropertyOp14
 70
     1
102
RTVSPropertyOp15
 70
     1
102
RTVSPropertyOp16
 70
     1
102
RTVSPropertyOp17
 70
     1
102
RTVSPropertyOp18
 70
     1
102
RTVSPropertyOp19
 70
     1
102
RTVSPropertyOp20
 70
     1
102
RTVSPropertyOp21
 70
     1
102
RTVSPropertyOp22
 70
     1
102
RTVSPropertyOp23
 70
     1
102
RTVSPropertyOp24
 70
     1
102
RTVSPropertyOp25
 70
     1
102
RTVSPropertyOp26
 70
     1
102
RTVSPropertyOp27
 70
     1
102
RTVSPropertyOp28
 70
     1
102
RTVSPropertyOp29
 70
     1
102
RTVSPropertyOp30
 70
     1
102
RTVSPropertyOp31
 70
     1
102
RTVSPropertyOp32
 70
     1
  0
XRECORD
  5
88
102
{ACAD_REACTORS
330
87
102
}
330
87
100
AcDbXrecord
280
     1
102
RTVSPropertyOp0
 70
     1
102
RTVSPropertyOp1
 70
     1
102
RTVSPropertyOp2
 70
     1
102
RTVSPropertyOp3
 70
     1
102
RTVSPropertyOp4
 70
     1
102
RTVSPropertyOp5
 70
     1
102
RTVSPropertyOp6
 70
     1
102
RTVSPropertyOp7
 70
     1
102
RTVSPropertyOp8
 70
     1
102
RTVSPropertyOp9
 70
     1
102
RTVSPropertyOp10
 70
     1
102
RTVSPropertyOp11
 70
     1
102
RTVSPropertyOp12
 70
     1
102
RTVSPropertyOp13
 70
     1
102
RTVSPropertyOp14
 70
     1
102
RTVSPropertyOp15
 70
     1
102
RTVSPropertyOp16
 70
     1
102
RTVSPropertyOp17
 70
     1
102
RTVSPropertyOp18
 70
     1
102
RTVSPropertyOp19
 70
     1
102
RTVSPropertyOp20
 70
     1
102
RTVSPropertyOp21
 70
     1
102
RTVSPropertyOp22
 70
     1
102
RTVSPropertyOp23
 70
     1
102
RTVSPropertyOp24
 70
     1
102
RTVSPropertyOp25
 70
     1
102
RTVSPropertyOp26
 70
     1
102
RTVSPropertyOp27
 70
     1
102
RTVSPropertyOp28
 70
     1
102
RTVSPropertyOp29
 70
     1
102
RTVSPropertyOp30
 70
     1
102
RTVSPropertyOp31
 70
     1
102
RTVSPropertyOp32
 70
     1
  0
XRECORD
  5
90
102
{ACAD_REACTORS
330
8F
102
}
330
8F
100
AcDbXrecord
280
     1
102
RTVSPropertyOp0
 70
     1
102
RTVSPropertyOp1
 70
     1
102
RTVSPropertyOp2
 70
     1
102
RTVSPropertyOp3
 70
     1
102
RTVSPropertyOp4
 70
     1
102
RTVSPropertyOp5
 70
     1
102
RTVSPropertyOp6
 70
     1
102
RTVSPropertyOp7
 70
     1
102
RTVSPropertyOp8
 70
     1
102
RTVSPropertyOp9
 70
     1
102
RTVSPropertyOp10
 70
     1
102
RTVSPropertyOp11
 70
     1
102
RTVSPropertyOp12
 70
     1
102
RTVSPropertyOp13
 70
     1
102
RTVSPropertyOp14
 70
     1
102
RTVSPropertyOp15
 70
     1
102
RTVSPropertyOp16
 70
     1
102
RTVSPropertyOp17
 70
     1
102
RTVSPropertyOp18
 70
     1
102
RTVSPropertyOp19
 70
     1
102
RTVSPropertyOp20
 70
     1
102
RTVSPropertyOp21
 70
     1
102
RTVSPropertyOp22
 70
     1
102
RTVSPropertyOp23
 70
     1
102
RTVSPropertyOp24
 70
     1
102
RTVSPropertyOp25
 70
     1
102
RTVSPropertyOp26
 70
     1
102
RTVSPropertyOp27
 70
     1
102
RTVSPropertyOp28
 70
     1
102
RTVSPropertyOp29
 70
     1
102
RTVSPropertyOp30
 70
     1
102
RTVSPropertyOp31
 70
     1
102
RTVSPropertyOp32
 70
     1
  0
XRECORD
  5
84
102
{ACAD_REACTORS
330
83
102
}
330
83
100
AcDbXrecord
280
     1
102
RTVSPropertyOp0
 70
     1
102
RTVSPropertyOp1
 70
     1
102
RTVSPropertyOp2
 70
     1
102
RTVSPropertyOp3
 70
     1
102
RTVSPropertyOp4
 70
     1
102
RTVSPropertyOp5
 70
     1
102
RTVSPropertyOp6
 70
     1
102
RTVSPropertyOp7
 70
     1
102
RTVSPropertyOp8
 70
     1
102
RTVSPropertyOp9
 70
     1
102
RTVSPropertyOp10
 70
     1
102
RTVSPropertyOp11
 70
     1
102
RTVSPropertyOp12
 70
     1
102
RTVSPropertyOp13
 70
     1
102
RTVSPropertyOp14
 70
     1
102
RTVSPropertyOp15
 70
     1
102
RTVSPropertyOp16
 70
     1
102
RTVSPropertyOp17
 70
     1
102
RTVSPropertyOp18
 70
     1
102
RTVSPropertyOp19
 70
     1
102
RTVSPropertyOp20
 70
     1
102
RTVSPropertyOp21
 70
     1
102
RTVSPropertyOp22
 70
     1
102
RTVSPropertyOp23
 70
     1
102
RTVSPropertyOp24
 70
     1
102
RTVSPropertyOp25
 70
     1
102
RTVSPropertyOp26
 70
     1
102
RTVSPropertyOp27
 70
     1
102
RTVSPropertyOp28
 70
     1
102
RTVSPropertyOp29
 70
     1
102
RTVSPropertyOp30
 70
     1
102
RTVSPropertyOp31
 70
     1
102
RTVSPropertyOp32
 70
     1
  0
XRECORD
  5
86
102
{ACAD_REACTORS
330
85
102
}
330
85
100
AcDbXrecord
280
     1
102
RTVSPropertyOp0
 70
     1
102
RTVSPropertyOp1
 70
     1
102
RTVSPropertyOp2
 70
     1
102
RTVSPropertyOp3
 70
     1
102
RTVSPropertyOp4
 70
     1
102
RTVSPropertyOp5
 70
     1
102
RTVSPropertyOp6
 70
     1
102
RTVSPropertyOp7
 70
     1
102
RTVSPropertyOp8
 70
     1
102
RTVSPropertyOp9
 70
     1
102
RTVSPropertyOp10
 70
     1
102
RTVSPropertyOp11
 70
     1
102
RTVSPropertyOp12
 70
     1
102
RTVSPropertyOp13
 70
     1
102
RTVSPropertyOp14
 70
     1
102
RTVSPropertyOp15
 70
     1
102
RTVSPropertyOp16
 70
     1
102
RTVSPropertyOp17
 70
     1
102
RTVSPropertyOp18
 70
     1
102
RTVSPropertyOp19
 70
     1
102
RTVSPropertyOp20
 70
     1
102
RTVSPropertyOp21
 70
     1
102
RTVSPropertyOp22
 70
     1
102
RTVSPropertyOp23
 70
     1
102
RTVSPropertyOp24
 70
     1
102
RTVSPropertyOp25
 70
     1
102
RTVSPropertyOp26
 70
     1
102
RTVSPropertyOp27
 70
     1
102
RTVSPropertyOp28
 70
     1
102
RTVSPropertyOp29
 70
     1
102
RTVSPropertyOp30
 70
     1
102
RTVSPropertyOp31
 70
     1
102
RTVSPropertyOp32
 70
     1
  0
XRECORD
  5
8E
102
{ACAD_REACTORS
330
8D
102
}
330
8D
100
AcDbXrecord
280
     1
102
RTVSPropertyOp0
 70
     1
102
RTVSPropertyOp1
 70
     1
102
RTVSPropertyOp2
 70
     1
102
RTVSPropertyOp3
 70
     1
102
RTVSPropertyOp4
 70
     1
102
RTVSPropertyOp5
 70
     1
102
RTVSPropertyOp6
 70
     1
102
RTVSPropertyOp7
 70
     1
102
RTVSPropertyOp8
 70
     1
102
RTVSPropertyOp9
 70
     1
102
RTVSPropertyOp10
 70
     1
102
RTVSPropertyOp11
 70
     1
102
RTVSPropertyOp12
 70
     1
102
RTVSPropertyOp13
 70
     1
102
RTVSPropertyOp14
 70
     1
102
RTVSPropertyOp15
 70
     1
102
RTVSPropertyOp16
 70
     1
102
RTVSPropertyOp17
 70
     1
102
RTVSPropertyOp18
 70
     1
102
RTVSPropertyOp19
 70
     1
102
RTVSPropertyOp20
 70
     1
102
RTVSPropertyOp21
 70
     1
102
RTVSPropertyOp22
 70
     1
102
RTVSPropertyOp23
 70
     1
102
RTVSPropertyOp24
 70
     1
102
RTVSPropertyOp25
 70
     1
102
RTVSPropertyOp26
 70
     1
102
RTVSPropertyOp27
 70
     1
102
RTVSPropertyOp28
 70
     1
102
RTVSPropertyOp29
 70
     1
102
RTVSPropertyOp30
 70
     1
102
RTVSPropertyOp31
 70
     1
102
RTVSPropertyOp32
 70
     1
  0
XRECORD
  5
72
102
{ACAD_REACTORS
330
71
102
}
330
71
100
AcDbXrecord
280
     1
102
RTVSPropertyOp0
 70
     1
102
RTVSPropertyOp1
 70
     1
102
RTVSPropertyOp2
 70
     1
102
RTVSPropertyOp3
 70
     1
102
RTVSPropertyOp4
 70
     1
102
RTVSPropertyOp5
 70
     1
102
RTVSPropertyOp6
 70
     1
102
RTVSPropertyOp7
 70
     1
102
RTVSPropertyOp8
 70
     1
102
RTVSPropertyOp9
 70
     1
102
RTVSPropertyOp10
 70
     1
102
RTVSPropertyOp11
 70
     1
102
RTVSPropertyOp12
 70
     1
102
RTVSPropertyOp13
 70
     1
102
RTVSPropertyOp14
 70
     1
102
RTVSPropertyOp15
 70
     1
102
RTVSPropertyOp16
 70
     1
102
RTVSPropertyOp17
 70
     1
102
RTVSPropertyOp18
 70
     1
102
RTVSPropertyOp19
 70
     1
102
RTVSPropertyOp20
 70
     1
102
RTVSPropertyOp21
 70
     1
102
RTVSPropertyOp22
 70
     1
102
RTVSPropertyOp23
 70
     1
102
RTVSPropertyOp24
 70
     1
102
RTVSPropertyOp25
 70
     1
102
RTVSPropertyOp26
 70
     1
102
RTVSPropertyOp27
 70
     1
102
RTVSPropertyOp28
 70
     1
102
RTVSPropertyOp29
 70
     1
102
RTVSPropertyOp30
 70
     1
102
RTVSPropertyOp31
 70
     1
102
RTVSPropertyOp32
 70
     1
  0
XRECORD
  5
74
102
{ACAD_REACTORS
330
73
102
}
330
73
100
AcDbXrecord
280
     1
102
RTVSPropertyOp0
 70
     1
102
RTVSPropertyOp1
 70
     1
102
RTVSPropertyOp2
 70
     1
102
RTVSPropertyOp3
 70
     1
102
RTVSPropertyOp4
 70
     1
102
RTVSPropertyOp5
 70
     1
102
RTVSPropertyOp6
 70
     1
102
RTVSPropertyOp7
 70
     1
102
RTVSPropertyOp8
 70
     1
102
RTVSPropertyOp9
 70
     1
102
RTVSPropertyOp10
 70
     1
102
RTVSPropertyOp11
 70
     1
102
RTVSPropertyOp12
 70
     1
102
RTVSPropertyOp13
 70
     1
102
RTVSPropertyOp14
 70
     1
102
RTVSPropertyOp15
 70
     1
102
RTVSPropertyOp16
 70
     1
102
RTVSPropertyOp17
 70
     1
102
RTVSPropertyOp18
 70
     1
102
RTVSPropertyOp19
 70
     1
102
RTVSPropertyOp20
 70
     1
102
RTVSPropertyOp21
 70
     1
102
RTVSPropertyOp22
 70
     1
102
RTVSPropertyOp23
 70
     1
102
RTVSPropertyOp24
 70
     1
102
RTVSPropertyOp25
 70
     1
102
RTVSPropertyOp26
 70
     1
102
RTVSPropertyOp27
 70
     1
102
RTVSPropertyOp28
 70
     1
102
RTVSPropertyOp29
 70
     1
102
RTVSPropertyOp30
 70
     1
102
RTVSPropertyOp31
 70
     1
102
RTVSPropertyOp32
 70
     1
  0
XRECORD
  5
76
102
{ACAD_REACTORS
330
75
102
}
330
75
100
AcDbXrecord
280
     1
102
RTVSPropertyOp0
 70
     1
102
RTVSPropertyOp1
 70
     1
102
RTVSPropertyOp2
 70
     1
102
RTVSPropertyOp3
 70
     1
102
RTVSPropertyOp4
 70
     1
102
RTVSPropertyOp5
 70
     1
102
RTVSPropertyOp6
 70
     1
102
RTVSPropertyOp7
 70
     1
102
RTVSPropertyOp8
 70
     1
102
RTVSPropertyOp9
 70
     1
102
RTVSPropertyOp10
 70
     1
102
RTVSPropertyOp11
 70
     1
102
RTVSPropertyOp12
 70
     1
102
RTVSPropertyOp13
 70
     1
102
RTVSPropertyOp14
 70
     1
102
RTVSPropertyOp15
 70
     1
102
RTVSPropertyOp16
 70
     1
102
RTVSPropertyOp17
 70
     1
102
RTVSPropertyOp18
 70
     1
102
RTVSPropertyOp19
 70
     1
102
RTVSPropertyOp20
 70
     1
102
RTVSPropertyOp21
 70
     1
102
RTVSPropertyOp22
 70
     1
102
RTVSPropertyOp23
 70
     1
102
RTVSPropertyOp24
 70
     1
102
RTVSPropertyOp25
 70
     1
102
RTVSPropertyOp26
 70
     1
102
RTVSPropertyOp27
 70
     1
102
RTVSPropertyOp28
 70
     1
102
RTVSPropertyOp29
 70
     1
102
RTVSPropertyOp30
 70
     1
102
RTVSPropertyOp31
 70
     1
102
RTVSPropertyOp32
 70
     1
  0
XRECORD
  5
78
102
{ACAD_REACTORS
330
77
102
}
330
77
100
AcDbXrecord
280
     1
102
RTVSPropertyOp0
 70
     1
102
RTVSPropertyOp1
 70
     1
102
RTVSPropertyOp2
 70
     1
102
RTVSPropertyOp3
 70
     1
102
RTVSPropertyOp4
 70
     1
102
RTVSPropertyOp5
 70
     1
102
RTVSPropertyOp6
 70
     1
102
RTVSPropertyOp7
 70
     1
102
RTVSPropertyOp8
 70
     1
102
RTVSPropertyOp9
 70
     1
102
RTVSPropertyOp10
 70
     1
102
RTVSPropertyOp11
 70
     1
102
RTVSPropertyOp12
 70
     1
102
RTVSPropertyOp13
 70
     1
102
RTVSPropertyOp14
 70
     1
102
RTVSPropertyOp15
 70
     1
102
RTVSPropertyOp16
 70
     1
102
RTVSPropertyOp17
 70
     1
102
RTVSPropertyOp18
 70
     1
102
RTVSPropertyOp19
 70
     1
102
RTVSPropertyOp20
 70
     1
102
RTVSPropertyOp21
 70
     1
102
RTVSPropertyOp22
 70
     1
102
RTVSPropertyOp23
 70
     1
102
RTVSPropertyOp24
 70
     1
102
RTVSPropertyOp25
 70
     1
102
RTVSPropertyOp26
 70
     1
102
RTVSPropertyOp27
 70
     1
102
RTVSPropertyOp28
 70
     1
102
RTVSPropertyOp29
 70
     1
102
RTVSPropertyOp30
 70
     1
102
RTVSPropertyOp31
 70
     1
102
RTVSPropertyOp32
 70
     1
  0
XRECORD
  5
8C
102
{ACAD_REACTORS
330
8B
102
}
330
8B
100
AcDbXrecord
280
     1
102
RTVSPropertyOp0
 70
     1
102
RTVSPropertyOp1
 70
     1
102
RTVSPropertyOp2
 70
     1
102
RTVSPropertyOp3
 70
     1
102
RTVSPropertyOp4
 70
     1
102
RTVSPropertyOp5
 70
     1
102
RTVSPropertyOp6
 70
     1
102
RTVSPropertyOp7
 70
     1
102
RTVSPropertyOp8
 70
     1
102
RTVSPropertyOp9
 70
     1
102
RTVSPropertyOp10
 70
     1
102
RTVSPropertyOp11
 70
     1
102
RTVSPropertyOp12
 70
     1
102
RTVSPropertyOp13
 70
     1
102
RTVSPropertyOp14
 70
     1
102
RTVSPropertyOp15
 70
     1
102
RTVSPropertyOp16
 70
     1
102
RTVSPropertyOp17
 70
     1
102
RTVSPropertyOp18
 70
     1
102
RTVSPropertyOp19
 70
     1
102
RTVSPropertyOp20
 70
     1
102
RTVSPropertyOp21
 70
     1
102
RTVSPropertyOp22
 70
     1
102
RTVSPropertyOp23
 70
     1
102
RTVSPropertyOp24
 70
     1
102
RTVSPropertyOp25
 70
     1
102
RTVSPropertyOp26
 70
     1
102
RTVSPropertyOp27
 70
     1
102
RTVSPropertyOp28
 70
     1
102
RTVSPropertyOp29
 70
     1
102
RTVSPropertyOp30
 70
     1
102
RTVSPropertyOp31
 70
     1
102
RTVSPropertyOp32
 70
     1
  0
XRECORD
  5
82
102
{ACAD_REACTORS
330
81
102
}
330
81
100
AcDbXrecord
280
     1
102
RTVSPropertyOp0
 70
     1
102
RTVSPropertyOp1
 70
     1
102
RTVSPropertyOp2
 70
     1
102
RTVSPropertyOp3
 70
     1
102
RTVSPropertyOp4
 70
     1
102
RTVSPropertyOp5
 70
     1
102
RTVSPropertyOp6
 70
     1
102
RTVSPropertyOp7
 70
     1
102
RTVSPropertyOp8
 70
     1
102
RTVSPropertyOp9
 70
     1
102
RTVSPropertyOp10
 70
     1
102
RTVSPropertyOp11
 70
     1
102
RTVSPropertyOp12
 70
     1
102
RTVSPropertyOp13
 70
     1
102
RTVSPropertyOp14
 70
     1
102
RTVSPropertyOp15
 70
     1
102
RTVSPropertyOp16
 70
     1
102
RTVSPropertyOp17
 70
     1
102
RTVSPropertyOp18
 70
     1
102
RTVSPropertyOp19
 70
     1
102
RTVSPropertyOp20
 70
     1
102
RTVSPropertyOp21
 70
     1
102
RTVSPropertyOp22
 70
     1
102
RTVSPropertyOp23
 70
     1
102
RTVSPropertyOp24
 70
     1
102
RTVSPropertyOp25
 70
     1
102
RTVSPropertyOp26
 70
     1
102
RTVSPropertyOp27
 70
     1
102
RTVSPropertyOp28
 70
     1
102
RTVSPropertyOp29
 70
     1
102
RTVSPropertyOp30
 70
     1
102
RTVSPropertyOp31
 70
     1
102
RTVSPropertyOp32
 70
     1
  0
XRECORD
  5
8A
102
{ACAD_REACTORS
330
89
102
}
330
89
100
AcDbXrecord
280
     1
102
RTVSPropertyOp0
 70
     1
102
RTVSPropertyOp1
 70
     1
102
RTVSPropertyOp2
 70
     1
102
RTVSPropertyOp3
 70
     1
102
RTVSPropertyOp4
 70
     1
102
RTVSPropertyOp5
 70
     1
102
RTVSPropertyOp6
 70
     1
102
RTVSPropertyOp7
 70
     1
102
RTVSPropertyOp8
 70
     1
102
RTVSPropertyOp9
 70
     1
102
RTVSPropertyOp10
 70
     1
102
RTVSPropertyOp11
 70
     1
102
RTVSPropertyOp12
 70
     1
102
RTVSPropertyOp13
 70
     1
102
RTVSPropertyOp14
 70
     1
102
RTVSPropertyOp15
 70
     1
102
RTVSPropertyOp16
 70
     1
102
RTVSPropertyOp17
 70
     1
102
RTVSPropertyOp18
 70
     1
102
RTVSPropertyOp19
 70
     1
102
RTVSPropertyOp20
 70
     1
102
RTVSPropertyOp21
 70
     1
102
RTVSPropertyOp22
 70
     1
102
RTVSPropertyOp23
 70
     1
102
RTVSPropertyOp24
 70
     1
102
RTVSPropertyOp25
 70
     1
102
RTVSPropertyOp26
 70
     1
102
RTVSPropertyOp27
 70
     1
102
RTVSPropertyOp28
 70
     1
102
RTVSPropertyOp29
 70
     1
102
RTVSPropertyOp30
 70
     1
102
RTVSPropertyOp31
 70
     1
102
RTVSPropertyOp32
 70
     1
  0
ENDSEC
  0
EOF
