  0
SECTION
  2
HEADER
  9
$ACADVER
  1
AC1021
  9
$ACADMAINTVER
 70
    25
  9
$DWGCODEPAGE
  3
UNDEFINED
  9
$INSBASE
 10
0.0
 20
0.0
 30
0.0
  9
$EXTMIN
 10
1.000000000000000E+20
 20
1.000000000000000E+20
 30
1.000000000000000E+20
  9
$EXTMAX
 10
-1.000000000000000E+20
 20
-1.000000000000000E+20
 30
-1.000000000000000E+20
  9
$LIMMIN
 10
0.0
 20
0.0
  9
$LIMMAX
 10
12.0
 20
9.0
  9
$ORTHOMODE
 70
     0
  9
$REGENMODE
 70
     1
  9
$FILLMODE
 70
     1
  9
$QTEXTMODE
 70
     0
  9
$MIRRTEXT
 70
     1
  9
$LTSCALE
 40
1.0
  9
$ATTMODE
 70
     1
  9
$TEXTSIZE
 40
0.2
  9
$TRACEWID
 40
0.05
  9
$TEXTSTYLE
  7
Standard
  9
$CLAYER
  8
0
  9
$CELTYPE
  6
ByLayer
  9
$CECOLOR
 62
   256
  9
$CELTSCALE
 40
1.0
  9
$DISPSILH
 70
     0
  9
$DIMSCALE
 40
1.0
  9
$DIMASZ
 40
0.18
  9
$DIMEXO
 40
0.0625
  9
$DIMDLI
 40
0.38
  9
$DIMRND
 40
0.0
  9
$DIMDLE
 40
0.0
  9
$DIMEXE
 40
0.18
  9
$DIMTP
 40
0.0
  9
$DIMTM
 40
0.0
  9
$DIMTXT
 40
0.18
  9
$DIMCEN
 40
0.09
  9
$DIMTSZ
 40
0.0
  9
$DIMTOL
 70
     0
  9
$DIMLIM
 70
     0
  9
$DIMTIH
 70
     1
  9
$DIMTOH
 70
     1
  9
$DIMSE1
 70
     0
  9
$DIMSE2
 70
     0
  9
$DIMTAD
 70
     0
  9
$DIMZIN
 70
     0
  9
$DIMBLK
  1

  9
$DIMASO
 70
     1
  9
$DIMSHO
 70
     1
  9
$DIMPOST
  1

  9
$DIMAPOST
  1

  9
$DIMALT
 70
     0
  9
$DIMALTD
 70
     2
  9
$DIMALTF
 40
25.4
  9
$DIMLFAC
 40
1.0
  9
$DIMTOFL
 70
     0
  9
$DIMTVP
 40
0.0
  9
$DIMTIX
 70
     0
  9
$DIMSOXD
 70
     0
  9
$DIMSAH
 70
     0
  9
$DIMBLK1
  1

  9
$DIMBLK2
  1

  9
$DIMSTYLE
  2
Standard
  9
$DIMCLRD
 70
     0
  9
$DIMCLRE
 70
     0
  9
$DIMCLRT
 70
     0
  9
$DIMTFAC
 40
1.0
  9
$DIMGAP
 40
0.09
  9
$DIMJUST
 70
     0
  9
$DIMSD1
 70
     0
  9
$DIMSD2
 70
     0
  9
$DIMTOLJ
 70
     1
  9
$DIMTZIN
 70
     0
  9
$DIMALTZ
 70
     0
  9
$DIMALTTZ
 70
     0
  9
$DIMUPT
 70
     0
  9
$DIMDEC
 70
     4
  9
$DIMTDEC
 70
     4
  9
$DIMALTU
 70
     2
  9
$DIMALTTD
 70
     2
  9
$DIMTXSTY
  7
Standard
  9
$DIMAUNIT
 70
     0
  9
$DIMADEC
 70
     0
  9
$DIMALTRND
 40
0.0
  9
$DIMAZIN
 70
     0
  9
$DIMDSEP
 70
    46
  9
$DIMATFIT
 70
     3
  9
$DIMFRAC
 70
     0
  9
$DIMLDRBLK
  1

  9
$DIMLUNIT
 70
     2
  9
$DIMLWD
 70
    -2
  9
$DIMLWE
 70
    -2
  9
$DIMTMOVE
 70
     0
  9
$DIMFXL
 40
1.0
  9
$DIMFXLON
 70
     0
  9
$DIMJOGANG
 40
0.7853981633974483
  9
$DIMTFILL
 70
     0
  9
$DIMTFILLCLR
 70
     0
  9
$DIMARCSYM
 70
     0
  9
$DIMLTYPE
  6

  9
$DIMLTEX1
  6

  9
$DIMLTEX2
  6

  9
$LUNITS
 70
     2
  9
$LUPREC
 70
     4
  9
$SKETCHINC
 40
0.1
  9
$FILLETRAD
 40
0.5
  9
$AUNITS
 70
     0
  9
$AUPREC
 70
     0
  9
$MENU
  1
.
  9
$ELEVATION
 40
0.0
  9
$PELEVATION
 40
0.0
  9
$THICKNESS
 40
0.0
  9
$LIMCHECK
 70
     0
  9
$CHAMFERA
 40
0.5
  9
$CHAMFERB
 40
0.5
  9
$CHAMFERC
 40
1.0
  9
$CHAMFERD
 40
0.0
  9
$SKPOLY
 70
     0
  9
$TDCREATE
 40
2458355.598391192
  9
$TDUCREATE
 40
2458355.556724537
  9
$TDUPDATE
 40
2458355.598391192
  9
$TDUUPDATE
 40
2458355.556724537
  9
$TDINDWG
 40
0.0000000116
  9
$TDUSRTIMER
 40
0.0000000116
  9
$USRTIMER
 70
     1
  9
$ANGBASE
 50
0.0
  9
$ANGDIR
 70
     0
  9
$PDMODE
 70
     0
  9
$PDSIZE
 40
0.0
  9
$PLINEWID
 40
0.0
  9
$SPLFRAME
 70
     0
  9
$SPLINETYPE
 70
     6
  9
$SPLINESEGS
 70
     8
  9
$HANDSEED
  5
93
  9
$SURFTAB1
 70
     6
  9
$SURFTAB2
 70
     6
  9
$SURFTYPE
 70
     6
  9
$SURFU
 70
     6
  9
$SURFV
 70
     6
  9
$UCSBASE
  2

  9
$UCSNAME
  2

  9
$UCSORG
 10
0.0
 20
0.0
 30
0.0
  9
$UCSXDIR
 10
1.0
 20
0.0
 30
0.0
  9
$UCSYDIR
 10
0.0
 20
1.0
 30
0.0
  9
$UCSORTHOREF
  2

  9
$UCSORTHOVIEW
 70
     0
  9
$UCSORGTOP
 10
0.0
 20
0.0
 30
0.0
  9
$UCSORGBOTTOM
 10
0.0
 20
0.0
 30
0.0
  9
$UCSORGLEFT
 10
0.0
 20
0.0
 30
0.0
  9
$UCSORGRIGHT
 10
0.0
 20
0.0
 30
0.0
  9
$UCSORGFRONT
 10
0.0
 20
0.0
 30
0.0
  9
$UCSORGBACK
 10
0.0
 20
0.0
 30
0.0
  9
$PUCSBASE
  2

  9
$PUCSNAME
  2

  9
$PUCSORG
 10
0.0
 20
0.0
 30
0.0
  9
$PUCSXDIR
 10
1.0
 20
0.0
 30
0.0
  9
$PUCSYDIR
 10
0.0
 20
1.0
 30
0.0
  9
$PUCSORTHOREF
  2

  9
$PUCSORTHOVIEW
 70
     0
  9
$PUCSORGTOP
 10
0.0
 20
0.0
 30
0.0
  9
$PUCSORGBOTTOM
 10
0.0
 20
0.0
 30
0.0
  9
$PUCSORGLEFT
 10
0.0
 20
0.0
 30
0.0
  9
$PUCSORGRIGHT
 10
0.0
 20
0.0
 30
0.0
  9
$PUCSORGFRONT
 10
0.0
 20
0.0
 30
0.0
  9
$PUCSORGBACK
 10
0.0
 20
0.0
 30
0.0
  9
$USERI1
 70
     0
  9
$USERI2
 70
     0
  9
$USERI3
 70
     0
  9
$USERI4
 70
     0
  9
$USERI5
 70
     0
  9
$USERR1
 40
0.0
  9
$USERR2
 40
0.0
  9
$USERR3
 40
0.0
  9
$USERR4
 40
0.0
  9
$USERR5
 40
0.0
  9
$WORLDVIEW
 70
     1
  9
$SHADEDGE
 70
     3
  9
$SHADEDIF
 70
    70
  9
$TILEMODE
 70
     1
  9
$MAXACTVP
 70
    64
  9
$PINSBASE
 10
0.0
 20
0.0
 30
0.0
  9
$PLIMCHECK
 70
     0
  9
$PEXTMIN
 10
1.000000000000000E+20
 20
1.000000000000000E+20
 30
1.000000000000000E+20
  9
$PEXTMAX
 10
-1.000000000000000E+20
 20
-1.000000000000000E+20
 30
-1.000000000000000E+20
  9
$PLIMMIN
 10
0.0
 20
0.0
  9
$PLIMMAX
 10
12.0
 20
9.0
  9
$UNITMODE
 70
     0
  9
$VISRETAIN
 70
     1
  9
$PLINEGEN
 70
     0
  9
$PSLTSCALE
 70
     1
  9
$TREEDEPTH
 70
  3020
  9
$CMLSTYLE
  2
Standard
  9
$CMLJUST
 70
     0
  9
$CMLSCALE
 40
1.0
  9
$PROXYGRAPHICS
 70
     1
  9
$MEASUREMENT
 70
     0
  9
$CELWEIGHT
370
    -1
  9
$ENDCAPS
280
     0
  9
$JOINSTYLE
280
     0
  9
$LWDISPLAY
290
     1
  9
$INSUNITS
 70
     1
  9
$HYPERLINKBASE
  1

  9
$STYLESHEET
  1

  9
$XEDIT
290
     1
  9
$CEPSNTYPE
380
     0
  9
$PSTYLEMODE
290
     1
  9
$FINGERPRINTGUID
  2
{FEA8A5F6-1643-6E37-F7A7-1C259AB99484}
  9
$VERSIONGUID
  2
{FAEB1C32-E019-11D5-929B-00C0DF256EC4}
  9
$EXTNAMES
290
     1
  9
$PSVPSCALE
 40
0.0
  9
$OLESTARTUP
290
     0
  9
$SORTENTS
280
   127
  9
$INDEXCTL
280
     0
  9
$HIDETEXT
280
     1
  9
$XCLIPFRAME
290
     0
  9
$HALOGAP
280
     0
  9
$OBSCOLOR
 70
   257
  9
$OBSLTYPE
280
     0
  9
$INTERSECTIONDISPLAY
280
     0
  9
$INTERSECTIONCOLOR
 70
   257
  9
$DIMASSOC
280
     2
  9
$PROJECTNAME
  1

  9
$CAMERADISPLAY
290
     0
  9
$LENSLENGTH
 40
50.0
  9
$CAMERAHEIGHT
 40
0.0
  9
$STEPSPERSEC
 40
2.0
  9
$STEPSIZE
 40
6.0
  9
$3DDWFPREC
 40
2.0
  9
$PSOLWIDTH
 40
0.25
  9
$PSOLHEIGHT
 40
4.0
  9
$LOFTANG1
 40
1.570796326794897
  9
$LOFTANG2
 40
1.570796326794897
  9
$LOFTMAG1
 40
0.0
  9
$LOFTMAG2
 40
0.0
  9
$LOFTPARAM
 70
     7
  9
$LOFTNORMALS
280
     1
  9
$LATITUDE
 40
37.795
  9
$LONGITUDE
 40
-122.394
  9
$NORTHDIRECTION
 40
0.0
  9
$TIMEZONE
 70
 -8000
  9
$LIGHTGLYPHDISPLAY
280
     1
  9
$TILEMODELIGHTSYNCH
280
     1
  9
$CMATERIAL
347
3C
  9
$SOLIDHIST
280
     1
  9
$SHOWHIST
280
     1
  9
$DWFFRAME
280
     2
  9
$DGNFRAME
280
     2
  9
$REALWORLDSCALE
290
     1
  9
$INTERFERECOLOR
 62
   256
  9
$CSHADOW
280
     0
  9
$SHADOWPLANELOCATION
 40
0.0
  0
ENDSEC
  0
SECTION
  2
CLASSES
  0
CLASS
  1
ACDBDICTIONARYWDFLT
  2
AcDbDictionaryWithDefault
  3
ObjectDBX Classes
 90
        0
 91
        4
280
     0
281
     0
  0
CLASS
  1
VISUALSTYLE
  2
AcDbVisualStyle
  3
ObjectDBX Classes
 90
     4095
 91
        4
280
     0
281
     0
  0
CLASS
  1
MATERIAL
  2
AcDbMaterial
  3
ObjectDBX Classes
 90
     1153
 91
        4
280
     0
281
     0
  0
CLASS
  1
SUN
  2
AcDbSun
  3
SCENEOE
 90
     1024
 91
        4
280
     0
281
     0
  0
ENDSEC
  0
SECTION
  2
TABLES
  0
TABLE
  2
VPORT
  5
8
330
0
100
AcDbSymbolTable
 70
     1
  0
VPORT
  5
29
330
8
100
AcDbSymbolTableRecord
100
AcDbViewportTableRecord
  2
*Active
 70
     0
 10
0.0
 20
0.0
 11
1.0
 21
1.0
 12
0.0
 22
0.0
 13
0.0
 23
0.0
 14
0.5
 24
0.5
 15
0.5
 25
0.5
 16
0.0
 26
0.0
 36
1.0
 17
248.7681804919362
 27
84.17917854685469
 37
0.0
 40
53.59191724386739
 41
4.765687496806806
 42
50.0
 43
0.0
 44
0.0
 50
0.0
 51
0.0
 71
     0
 72
   100
 73
     1
 74
     3
 75
     0
 76
     0
 77
     0
 78
     0
281
     0
 65
     1
110
0.0
120
0.0
130
0.0
111
1.0
121
0.0
131
0.0
112
0.0
122
1.0
132
0.0
 79
     0
146
0.0
 60
     3
 61
     5
292
     1
282
     1
141
0.0
142
0.0
 63
   250
361
3F
  0
ENDTAB
  0
TABLE
  2
LTYPE
  5
5
330
0
100
AcDbSymbolTable
 70
     1
  0
LTYPE
  5
14
330
5
100
AcDbSymbolTableRecord
100
AcDbLinetypeTableRecord
  2
ByBlock
 70
     0
  3

 72
    65
 73
     0
 40
0.0
  0
LTYPE
  5
15
330
5
100
AcDbSymbolTableRecord
100
AcDbLinetypeTableRecord
  2
ByLayer
 70
     0
  3

 72
    65
 73
     0
 40
0.0
  0
LTYPE
  5
16
330
5
100
AcDbSymbolTableRecord
100
AcDbLinetypeTableRecord
  2
Continuous
 70
     0
  3
Solid line
 72
    65
 73
     0
 40
0.0
  0
ENDTAB
  0
TABLE
  2
LAYER
  5
2
330
0
100
AcDbSymbolTable
 70
     2
  0
LAYER
  5
10
330
2
100
AcDbSymbolTableRecord
100
AcDbLayerTableRecord
  2
0
 70
     0
 62
     7
  6
Continuous
370
    -3
390
F
347
3E
  0
LAYER
  5
40
330
2
100
AcDbSymbolTableRecord
100
AcDbLayerTableRecord
  2
Ebene 1
 70
     0
 62
     7
  6
Continuous
370
    -3
390
F
347
3E
  0
ENDTAB
  0
TABLE
  2
STYLE
  5
3
330
0
100
AcDbSymbolTable
 70
     1
  0
STYLE
  5
11
330
3
100
AcDbSymbolTableRecord
100
AcDbTextStyleTableRecord
  2
Standard
 70
     0
 40
0.0
 41
1.0
 50
0.0
 71
     0
 42
0.2
  3
txt
  4

  0
ENDTAB
  0
TABLE
  2
VIEW
  5
6
330
0
100
AcDbSymbolTable
 70
     0
  0
ENDTAB
  0
TABLE
  2
UCS
  5
7
330
0
100
AcDbSymbolTable
 70
     0
  0
ENDTAB
  0
TABLE
  2
APPID
  5
9
330
0
100
AcDbSymbolTable
 70
     1
  0
APPID
  5
12
330
9
100
AcDbSymbolTableRecord
100
AcDbRegAppTableRecord
  2
ACAD
 70
     0
  0
ENDTAB
  0
TABLE
  2
DIMSTYLE
  5
A
330
0
100
AcDbSymbolTable
 70
     1
100
AcDbDimStyleTable
  0
DIMSTYLE
105
27
330
A
100
AcDbSymbolTableRecord
100
AcDbDimStyleTableRecord
  2
Standard
 70
     0
178
     0
340
11
  0
ENDTAB
  0
TABLE
  2
BLOCK_RECORD
  5
1
330
0
100
AcDbSymbolTable
 70
     1
  0
BLOCK_RECORD
  5
1F
330
1
100
AcDbSymbolTableRecord
100
AcDbBlockTableRecord
  2
*Model_Space
340
22
 70
     0
280
     1
281
     0
  0
BLOCK_RECORD
  5
1B
330
1
100
AcDbSymbolTableRecord
100
AcDbBlockTableRecord
  2
*Paper_Space
340
1E
 70
     0
280
     1
281
     0
  0
BLOCK_RECORD
  5
23
330
1
100
AcDbSymbolTableRecord
100
AcDbBlockTableRecord
  2
*Paper_Space0
340
26
 70
     0
280
     1
281
     0
  0
ENDTAB
  0
ENDSEC
  0
SECTION
  2
BLOCKS
  0
BLOCK
  5
20
330
1F
100
AcDbEntity
  8
0
100
AcDbBlockBegin
  2
*Model_Space
 70
     0
 10
0.0
 20
0.0
 30
0.0
  3
*Model_Space
  1

  0
ENDBLK
  5
21
330
1F
100
AcDbEntity
  8
0
100
AcDbBlockEnd
  0
BLOCK
  5
1C
330
1B
100
AcDbEntity
 67
     1
  8
0
100
AcDbBlockBegin
  2
*Paper_Space
 70
     0
 10
0.0
 20
0.0
 30
0.0
  3
*Paper_Space
  1

  0
ENDBLK
  5
1D
330
1B
100
AcDbEntity
 67
     1
  8
0
100
AcDbBlockEnd
  0
BLOCK
  5
24
330
23
100
AcDbEntity
  8
0
100
AcDbBlockBegin
  2
*Paper_Space0
 70
     0
 10
0.0
 20
0.0
 30
0.0
  3
*Paper_Space0
  1

  0
ENDBLK
  5
25
330
23
100
AcDbEntity
  8
0
100
AcDbBlockEnd
  0
ENDSEC
  0
SECTION
  2
ENTITIES
  0
SPLINE
  5
41
330
1F
100
AcDbEntity
  8
Ebene 1
 62
   250
370
    35
100
AcDbSpline
210
0.0
220
0.0
230
1.0
 70
    11
 71
     3
 72
    26
 73
    22
 74
     0
 42
0.0000000001
 43
0.0000000001
 12
1.0
 22
0.0
 32
0.0
 13
1.0
 23
0.0
 33
0.0
 40
0.0
 40
0.0
 40
0.0
 40
0.0
 40
1.0
 40
1.0
 40
1.0
 40
2.0
 40
2.0
 40
2.0
 40
3.0
 40
3.0
 40
3.0
 40
4.0
 40
4.0
 40
4.0
 40
5.0
 40
5.0
 40
5.0
 40
6.0
 40
6.0
 40
6.0
 40
7.0
 40
7.0
 40
7.0
 40
7.0
 10
362.6225001871223
 20
60.0731504118507
 30
0.0
 10
362.6225001871223
 20
59.57326431349274
 30
0.0
 10
362.4109393538417
 20
59.17053321265616
 30
0.0
 10
361.9875354650589
 20
58.86428683158027
 30
0.0
 10
361.4983385207364
 20
58.51909378483132
 30
0.0
 10
360.8613629653402
 20
58.34439823373262
 30
0.0
 10
360.0734690766486
 20
58.34439823373262
 30
0.0
 10
359.4254515768105
 20
58.34439823373262
 30
0.0
 10
358.8862660213894
 20
58.4532654531774
 30
0.0
 10
358.4497740770545
 20
58.67170544760454
 30
0.0
 10
357.8916796327494
 20
58.94835377387998
 30
0.0
 10
357.6119268550417
 20
59.33901987502437
 30
0.0
 10
357.6119268550417
 20
59.84476208434403
 30
0.0
 10
357.6119268550417
 20
60.37907929293469
 30
0.0
 10
357.8940785216374
 20
60.78562039367407
 30
0.0
 10
358.4583818548302
 20
61.06054165140122
 30
0.0
 10
358.9172751880484
 20
61.28515371426325
 30
0.0
 10
359.5115646323445
 20
61.3967726003045
 30
0.0
 10
360.2408974099399
 20
61.3967726003045
 30
0.0
 10
361.8270215762101
 20
61.3967726003045
 30
0.0
 10
362.6225001871223
 20
60.95544761156364
 30
0.0
 10
362.6225001871223
 20
60.0731504118507
 30
0.0
  0
SPLINE
  5
42
330
1F
100
AcDbEntity
  8
Ebene 1
 62
   250
370
    35
100
AcDbSpline
210
0.0
220
0.0
230
1.0
 70
    11
 71
     3
 72
    29
 73
    25
 74
     0
 42
0.0000000001
 43
0.0000000001
 12
1.0
 22
0.0
 32
0.0
 13
1.0
 23
0.0
 33
0.0
 40
0.0
 40
0.0
 40
0.0
 40
0.0
 40
1.0
 40
1.0
 40
1.0
 40
2.0
 40
2.0
 40
2.0
 40
3.0
 40
3.0
 40
3.0
 40
4.0
 40
4.0
 40
4.0
 40
5.0
 40
5.0
 40
5.0
 40
6.0
 40
6.0
 40
6.0
 40
7.0
 40
7.0
 40
7.0
 40
8.0
 40
8.0
 40
8.0
 40
8.0
 10
363.3363107424995
 20
68.21462631525546
 30
0.0
 10
363.5009874091251
 20
67.96104965505806
 30
0.0
 10
363.5823026868824
 20
67.6585779961081
 30
0.0
 10
363.5823026868824
 20
67.3061530050992
 30
0.0
 10
363.5823026868824
 20
66.77042468543344
 30
0.0
 10
363.4389690758069
 20
66.2943158086911
 30
0.0
 10
363.1506085203234
 20
65.87712081933464
 30
0.0
 10
362.769255742641
 20
65.33588916647594
 30
0.0
 10
362.2483440761046
 20
65.06544972893097
 30
0.0
 10
361.5906604651581
 20
65.06544972893097
 30
0.0
 10
361.1435146319366
 20
65.06544972893097
 30
0.0
 10
360.7776487986943
 20
65.18878083689565
 30
0.0
 10
360.4965201876536
 20
65.43614860836254
 30
0.0
 10
360.2015979655054
 20
65.68245804652311
 30
0.0
 10
360.0555479655417
 20
66.04454914839651
 30
0.0
 10
360.0555479655417
 20
66.52065802513886
 30
0.0
 10
360.0555479655417
 20
67.1252838430469
 30
0.0
 10
360.2584657432685
 20
67.6585779961081
 30
0.0
 10
360.6649715765007
 20
68.11778881772598
 30
0.0
 10
361.0573662986245
 20
68.55773797316861
 30
0.0
 10
361.5427885207254
 20
68.77892963419221
 30
0.0
 10
362.1188040761367
 20
68.77892963419221
 30
0.0
 10
362.6831074093295
 20
68.77892963419221
 30
0.0
 10
363.0896485203386
 20
68.58977019457362
 30
0.0
 10
363.3363107424995
 20
68.21462631525546
 30
0.0
  0
SPLINE
  5
43
330
1F
100
AcDbEntity
  8
Ebene 1
 62
   250
370
    35
100
AcDbSpline
210
0.0
220
0.0
230
1.0
 70
    11
 71
     3
 72
    80
 73
    76
 74
     0
 42
0.0000000001
 43
0.0000000001
 12
1.0
 22
0.0
 32
0.0
 13
1.0
 23
0.0
 33
0.0
 40
0.0
 40
0.0
 40
0.0
 40
0.0
 40
1.0
 40
1.0
 40
1.0
 40
2.0
 40
2.0
 40
2.0
 40
3.0
 40
3.0
 40
3.0
 40
4.0
 40
4.0
 40
4.0
 40
5.0
 40
5.0
 40
5.0
 40
6.0
 40
6.0
 40
6.0
 40
7.0
 40
7.0
 40
7.0
 40
8.0
 40
8.0
 40
8.0
 40
9.0
 40
9.0
 40
9.0
 40
10.0
 40
10.0
 40
10.0
 40
11.0
 40
11.0
 40
11.0
 40
12.0
 40
12.0
 40
12.0
 40
13.0
 40
13.0
 40
13.0
 40
14.0
 40
14.0
 40
14.0
 40
15.0
 40
15.0
 40
15.0
 40
16.0
 40
16.0
 40
16.0
 40
17.0
 40
17.0
 40
17.0
 40
18.0
 40
18.0
 40
18.0
 40
19.0
 40
19.0
 40
19.0
 40
20.0
 40
20.0
 40
20.0
 40
21.0
 40
21.0
 40
21.0
 40
22.0
 40
22.0
 40
22.0
 40
23.0
 40
23.0
 40
23.0
 40
24.0
 40
24.0
 40
24.0
 40
25.0
 40
25.0
 40
25.0
 40
25.0
 10
363.6539518535307
 20
69.45795628353547
 30
0.0
 10
363.1544185203225
 20
69.66948183369455
 30
0.0
 10
362.6689962982215
 20
69.77453905323654
 30
0.0
 10
362.1980379650063
 20
69.77453905323654
 30
0.0
 10
361.6516557429205
 20
69.77453905323654
 30
0.0
 10
361.1541685208226
 20
69.66362572273285
 30
0.0
 10
360.7083985209339
 20
69.44003517288155
 30
0.0
 10
360.1082529655285
 20
69.14581851372098
 30
0.0
 10
359.6442090767559
 20
68.6845263032673
 30
0.0
 10
359.3141501879492
 20
68.05442993045351
 30
0.0
 10
359.0440635213499
 20
67.53799855473989
 30
0.0
 10
358.9090201880505
 20
66.99747245741875
 30
0.0
 10
358.9090201880505
 20
66.43316913848199
 30
0.0
 10
358.9090201880505
 20
65.47438971849805
 30
0.0
 10
359.3475582434963
 20
64.77984084732857
 30
0.0
 10
360.222976298833
 20
64.35058085827991
 30
0.0
 10
359.651441021198
 20
64.16283252973643
 30
0.0
 10
359.2235568546388
 20
63.98954808971285
 30
0.0
 10
358.9341732435996
 20
63.83037476044036
 30
0.0
 10
358.381899632627
 20
63.5255042126627
 30
0.0
 10
358.1069799104735
 20
63.16341311078931
 30
0.0
 10
358.1069799104735
 20
62.7448422881346
 30
0.0
 10
358.1069799104735
 20
62.43408035161836
 30
0.0
 10
358.2944107437595
 20
62.16399369184217
 30
0.0
 10
358.6709657436653
 20
61.93352397549972
 30
0.0
 10
357.1957549107011
 20
61.5459270409437
 30
0.0
 10
356.4571440775526
 20
60.82626039263726
 30
0.0
 10
356.4571440775526
 20
59.77276014173651
 30
0.0
 10
356.4571440775526
 20
59.02585904968043
 30
0.0
 10
356.8133790774635
 20
58.43294545369581
 30
0.0
 10
357.5244379661742
 20
57.99162046495495
 30
0.0
 10
358.1762301882338
 20
57.58649047529067
 30
0.0
 10
359.0144301880243
 20
57.38321992492099
 30
0.0
 10
360.0376268544354
 20
57.38321992492099
 30
0.0
 10
361.0491112986265
 20
57.38321992492099
 30
0.0
 10
361.8917915761934
 20
57.59474547508007
 30
0.0
 10
362.5697599093573
 20
58.01920768647337
 30
0.0
 10
363.4269040758099
 20
58.55938100602572
 30
0.0
 10
363.8558112979248
 20
59.30077876488887
 30
0.0
 10
363.8558112979248
 20
60.24026124092067
 30
0.0
 10
363.8558112979248
 20
60.99954483266085
 30
0.0
 10
363.5571496313332
 20
61.5459270409437
 30
0.0
 10
362.958027131483
 20
61.88081897684434
 30
0.0
 10
362.451261853832
 20
62.16399369184217
 30
0.0
 10
361.7195301873479
 20
62.36620590890553
 30
0.0
 10
360.760750743143
 20
62.48921951687831
 30
0.0
 10
360.2322896321642
 20
62.56086868171705
 30
0.0
 10
359.9122143544662
 20
62.61942979133414
 30
0.0
 10
359.7995724100502
 20
62.66627867902782
 30
0.0
 10
359.5987360212112
 20
62.74240812153003
 30
0.0
 10
359.5008754656804
 20
62.85508534087762
 30
0.0
 10
359.5008754656804
 20
63.00081942869394
 30
0.0
 10
359.5008754656804
 20
63.38354643850657
 30
0.0
 10
360.0651787988725
 20
63.75424531793814
 30
0.0
 10
361.1934679652571
 20
64.11287919767751
 30
0.0
 10
361.7339940762329
 20
64.12356836407147
 30
0.0
 10
362.140182409465
 20
64.15937530760242
 30
0.0
 10
362.4109393538417
 20
64.21797169499638
 30
0.0
 10
363.1282071314401
 20
64.37093613553839
 30
0.0
 10
363.7008007424083
 20
64.73782501506716
 30
0.0
 10
364.1300607423011
 20
65.32142527795605
 30
0.0
 10
364.5289818533121
 20
65.87951970816232
 30
0.0
 10
364.7298535199286
 20
66.51205024758067
 30
0.0
 10
364.7298535199286
 20
67.21760578513602
 30
0.0
 10
364.7298535199286
 20
67.71128299476348
 30
0.0
 10
364.5985849088502
 20
68.15465409456326
 30
0.0
 10
364.3329785200278
 20
68.54948297337921
 30
0.0
 10
364.3329785200278
 20
68.54948297337921
 30
0.0
 10
366.1309810195784
 20
68.54948297337921
 30
0.0
 10
366.1309810195784
 20
68.54948297337921
 30
0.0
 10
366.1309810195784
 20
68.54948297337921
 30
0.0
 10
366.3618035195207
 20
69.45795628353547
 30
0.0
 10
366.3618035195207
 20
69.45795628353547
 30
0.0
 10
366.3618035195207
 20
69.45795628353547
 30
0.0
 10
363.6539518535307
 20
69.45795628353547
 30
0.0
 10
363.6539518535307
 20
69.45795628353547
 30
0.0
  0
SPLINE
  5
44
330
1F
100
AcDbEntity
  8
Ebene 1
 62
   250
370
    35
100
AcDbSpline
210
0.0
220
0.0
230
1.0
 70
    11
 71
     3
 72
    65
 73
    61
 74
     0
 42
0.0000000001
 43
0.0000000001
 12
1.0
 22
0.0
 32
0.0
 13
1.0
 23
0.0
 33
0.0
 40
0.0
 40
0.0
 40
0.0
 40
0.0
 40
1.0
 40
1.0
 40
1.0
 40
2.0
 40
2.0
 40
2.0
 40
3.0
 40
3.0
 40
3.0
 40
4.0
 40
4.0
 40
4.0
 40
5.0
 40
5.0
 40
5.0
 40
6.0
 40
6.0
 40
6.0
 40
7.0
 40
7.0
 40
7.0
 40
8.0
 40
8.0
 40
8.0
 40
9.0
 40
9.0
 40
9.0
 40
10.0
 40
10.0
 40
10.0
 40
11.0
 40
11.0
 40
11.0
 40
12.0
 40
12.0
 40
12.0
 40
13.0
 40
13.0
 40
13.0
 40
14.0
 40
14.0
 40
14.0
 40
15.0
 40
15.0
 40
15.0
 40
16.0
 40
16.0
 40
16.0
 40
17.0
 40
17.0
 40
17.0
 40
18.0
 40
18.0
 40
18.0
 40
19.0
 40
19.0
 40
19.0
 40
20.0
 40
20.0
 40
20.0
 40
20.0
 10
350.9267085471138
 20
69.29052795447357
 30
0.0
 10
350.9267085471138
 20
68.85403602116497
 30
0.0
 10
350.8188996609753
 20
68.21081631535266
 30
0.0
 10
350.6001068887794
 20
67.35850522598581
 30
0.0
 10
350.5295249123678
 20
67.08841856620963
 30
0.0
 10
350.4747296697558
 20
66.86722690518603
 30
0.0
 10
350.4330313374863
 20
66.69739968729647
 30
0.0
 10
350.4330313374863
 20
66.69739968729647
 30
0.0
 10
349.0208972068462
 20
61.05224983131623
 30
0.0
 10
349.0208972068462
 20
61.05224983131623
 30
0.0
 10
349.0208972068462
 20
61.05224983131623
 30
0.0
 10
350.2390741202124
 20
61.05224983131623
 30
0.0
 10
350.2390741202124
 20
61.05224983131623
 30
0.0
 10
350.2390741202124
 20
61.05224983131623
 30
0.0
 10
351.3235835369887
 20
65.39205138726534
 30
0.0
 10
351.3235835369887
 20
65.39205138726534
 30
0.0
 10
351.8651679676161
 20
67.5617757763555
 30
0.0
 10
352.8466751895659
 20
68.64593241536303
 30
0.0
 10
354.2691457447664
 20
68.64593241536303
 30
0.0
 10
354.6805199113297
 20
68.64593241536303
 30
0.0
 10
355.0105435223588
 20
68.54567297347641
 30
0.0
 10
355.2568529667413
 20
68.34621242300952
 30
0.0
 10
355.49215574446
 20
68.15225520573556
 30
0.0
 10
355.6106890777641
 20
67.87631243499767
 30
0.0
 10
355.6106890777641
 20
67.5176785552583
 30
0.0
 10
355.6106890777641
 20
67.17555467509771
 30
0.0
 10
355.5149099111212
 20
66.63298246671766
 30
0.0
 10
355.3285374111678
 20
65.8857285968928
 30
0.0
 10
355.3285374111678
 20
65.8857285968928
 30
0.0
 10
354.1282463003571
 20
61.05224983131623
 30
0.0
 10
354.1282463003571
 20
61.05224983131623
 30
0.0
 10
354.1282463003571
 20
61.05224983131623
 30
0.0
 10
355.3450474111636
 20
61.05224983131623
 30
0.0
 10
355.3450474111636
 20
61.05224983131623
 30
0.0
 10
355.3450474111636
 20
61.05224983131623
 30
0.0
 10
356.5622012997487
 20
65.93843359554819
 30
0.0
 10
356.5622012997487
 20
65.93843359554819
 30
0.0
 10
356.7868501885808
 20
66.83865190591504
 30
0.0
 10
356.8970932441088
 20
67.49009133373988
 30
0.0
 10
356.8970932441088
 20
67.89663243447926
 30
0.0
 10
356.8970932441088
 20
68.43200797637625
 30
0.0
 10
356.7093096330451
 20
68.87329768734024
 30
0.0
 10
356.3327546331392
 20
69.21884351185795
 30
0.0
 10
355.9286476887956
 20
69.59056544681899
 30
0.0
 10
355.3774324111556
 20
69.77453905323654
 30
0.0
 10
354.6839418557735
 20
69.77453905323654
 30
0.0
 10
353.6080401893755
 20
69.77453905323654
 30
0.0
 10
352.7078482238954
 20
69.29292684330127
 30
0.0
 10
351.9857474089844
 20
68.32934964566195
 30
0.0
 10
352.0863332453121
 20
68.6927813030567
 30
0.0
 10
352.1362776829218
 20
68.99871018414069
 30
0.0
 10
352.1362776829218
 20
69.24643073337637
 30
0.0
 10
352.1362776829218
 20
69.32153887155864
 30
0.0
 10
352.1256237943047
 20
69.44003517288155
 30
0.0
 10
352.1077026836508
 20
69.59920850215404
 30
0.0
 10
352.1077026836508
 20
69.59920850215404
 30
0.0
 10
350.9087874364599
 20
69.59920850215404
 30
0.0
 10
350.9087874364599
 20
69.59920850215404
 30
0.0
 10
350.9219107694584
 20
69.46275406119084
 30
0.0
 10
350.9267085471138
 20
69.36115406378288
 30
0.0
 10
350.9267085471138
 20
69.29052795447357
 30
0.0
  0
SPLINE
  5
45
330
1F
100
AcDbEntity
  8
Ebene 1
 62
   250
370
    35
100
AcDbSpline
210
0.0
220
0.0
230
1.0
 70
    11
 71
     3
 72
    23
 73
    19
 74
     0
 42
0.0000000001
 43
0.0000000001
 12
1.0
 22
0.0
 32
0.0
 13
1.0
 23
0.0
 33
0.0
 40
0.0
 40
0.0
 40
0.0
 40
0.0
 40
1.0
 40
1.0
 40
1.0
 40
2.0
 40
2.0
 40
2.0
 40
3.0
 40
3.0
 40
3.0
 40
4.0
 40
4.0
 40
4.0
 40
5.0
 40
5.0
 40
5.0
 40
6.0
 40
6.0
 40
6.0
 40
6.0
 10
342.7945812545817
 20
66.18580136701509
 30
0.0
 10
343.000250693779
 20
66.75596079691356
 30
0.0
 10
343.2500173540736
 20
67.22829495152997
 30
0.0
 10
343.5442340132342
 20
67.6058729974527
 30
0.0
 10
344.108537332171
 20
68.34621242300952
 30
0.0
 10
344.7731000929943
 20
68.71691130244109
 30
0.0
 10
345.5372167401667
 20
68.71691130244109
 30
0.0
 10
346.1959233900284
 20
68.71691130244109
 30
0.0
 10
346.671679489002
 20
68.47264797533944
 30
0.0
 10
346.966919203692
 20
67.98517965444246
 30
0.0
 10
347.153644476706
 20
67.67304188462798
 30
0.0
 10
347.2494236409291
 20
67.26995800602262
 30
0.0
 10
347.2494236409291
 20
66.77628079639514
 30
0.0
 10
347.2494236409291
 20
66.60539524519925
 30
0.0
 10
347.2311497525064
 20
66.40833358356004
 30
0.0
 10
347.196365864505
 20
66.18580136701509
 30
0.0
 10
347.196365864505
 20
66.18580136701509
 30
0.0
 10
342.7945812545817
 20
66.18580136701509
 30
0.0
 10
342.7945812545817
 20
66.18580136701509
 30
0.0
  0
SPLINE
  5
46
330
1F
100
AcDbEntity
  8
Ebene 1
 62
   250
370
    35
100
AcDbSpline
210
0.0
220
0.0
230
1.0
 70
    11
 71
     3
 72
    53
 73
    49
 74
     0
 42
0.0000000001
 43
0.0000000001
 12
1.0
 22
0.0
 32
0.0
 13
1.0
 23
0.0
 33
0.0
 40
0.0
 40
0.0
 40
0.0
 40
0.0
 40
1.0
 40
1.0
 40
1.0
 40
2.0
 40
2.0
 40
2.0
 40
3.0
 40
3.0
 40
3.0
 40
4.0
 40
4.0
 40
4.0
 40
5.0
 40
5.0
 40
5.0
 40
6.0
 40
6.0
 40
6.0
 40
7.0
 40
7.0
 40
7.0
 40
8.0
 40
8.0
 40
8.0
 40
9.0
 40
9.0
 40
9.0
 40
10.0
 40
10.0
 40
10.0
 40
11.0
 40
11.0
 40
11.0
 40
12.0
 40
12.0
 40
12.0
 40
13.0
 40
13.0
 40
13.0
 40
14.0
 40
14.0
 40
14.0
 40
15.0
 40
15.0
 40
15.0
 40
16.0
 40
16.0
 40
16.0
 40
16.0
 10
348.4662247209971
 20
66.76664996330751
 30
0.0
 10
348.4662247209971
 20
67.7088841059358
 30
0.0
 10
348.2126833385765
 20
68.44887075372382
 30
0.0
 10
347.7083169625552
 20
68.9904551843513
 30
0.0
 10
347.2063582465319
 20
69.52477239294195
 30
0.0
 10
346.5138819930277
 20
69.79383599718868
 30
0.0
 10
345.6254111823612
 20
69.79383599718868
 30
0.0
 10
344.9036631452189
 20
69.79383599718868
 30
0.0
 10
344.2435806620591
 20
69.60746350194344
 30
0.0
 10
343.6506670660744
 20
69.2381404558101
 30
0.0
 10
342.8211101427937
 20
68.72622463553682
 30
0.0
 10
342.1682596038938
 20
67.93487354461476
 30
0.0
 10
341.6924682271433
 20
66.86482801635835
 30
0.0
 10
341.2990504594025
 20
65.97184165025143
 30
0.0
 10
341.1019887977633
 20
65.05719472914157
 30
0.0
 10
341.1019887977633
 20
64.12113419746692
 30
0.0
 10
341.1019887977633
 20
63.02251366993951
 30
0.0
 10
341.4186068452412
 20
62.17810480259328
 30
0.0
 10
342.0535362734873
 20
61.59002426204091
 30
0.0
 10
342.5889118153843
 20
61.10255594114393
 30
0.0
 10
343.2978892972968
 20
60.85864539181105
 30
0.0
 10
344.1791721361775
 20
60.85864539181105
 30
0.0
 10
345.9544117295232
 20
60.85864539181105
 30
0.0
 10
347.1808789204557
 20
61.8053598121028
 30
0.0
 10
347.8564483476649
 20
63.69808309714874
 30
0.0
 10
347.8564483476649
 20
63.69808309714874
 30
0.0
 10
346.6392944898282
 20
63.75184642911045
 30
0.0
 10
346.6392944898282
 20
63.75184642911045
 30
0.0
 10
346.4515461612847
 20
63.33944921740936
 30
0.0
 10
346.260693388376
 20
63.01044867024731
 30
0.0
 10
346.0681120044002
 20
62.76413923208674
 30
0.0
 10
345.6254111823612
 20
62.21669869049756
 30
0.0
 10
345.0411053639347
 20
61.94417786411681
 30
0.0
 10
344.3118165805889
 20
61.94417786411681
 30
0.0
 10
343.6410362329868
 20
61.94417786411681
 30
0.0
 10
343.1353026919938
 20
62.19637869101597
 30
0.0
 10
342.7945812545817
 20
62.70176812256685
 30
0.0
 10
342.541357372153
 20
63.07867589072891
 30
0.0
 10
342.4145776921741
 20
63.58921587770395
 30
0.0
 10
342.4145776921741
 20
64.23691586117974
 30
0.0
 10
342.4145776921741
 20
64.5238652983035
 30
0.0
 10
342.4528101521898
 20
64.84566917898249
 30
0.0
 10
342.5303154279903
 20
65.19703583668505
 30
0.0
 10
342.5303154279903
 20
65.19703583668505
 30
0.0
 10
348.2450683377504
 20
65.19703583668505
 30
0.0
 10
348.2450683377504
 20
65.19703583668505
 30
0.0
 10
348.3921766673307
 20
65.69212415738762
 30
0.0
 10
348.4662247209971
 20
66.21437636628607
 30
0.0
 10
348.4662247209971
 20
66.76664996330751
 30
0.0
  0
POLYLINE
  5
47
330
1F
100
AcDbEntity
  8
Ebene 1
 62
   250
370
    35
100
AcDb2dPolyline
 66
     1
 10
0.0
 20
0.0
 30
0.0
  0
VERTEX
  5
48
330
47
100
AcDbEntity
  8
Ebene 1
 62
   250
370
    35
100
AcDbVertex
100
AcDb2dVertex
 10
334.3902506356607
 20
73.09079119085412
 30
0.0
  0
VERTEX
  5
49
330
47
100
AcDbEntity
  8
Ebene 1
 62
   250
370
    35
100
AcDbVertex
100
AcDb2dVertex
 10
333.0749187247731
 20
73.09079119085412
 30
0.0
  0
VERTEX
  5
4A
330
47
100
AcDbEntity
  8
Ebene 1
 62
   250
370
    35
100
AcDbVertex
100
AcDb2dVertex
 10
330.0766604679317
 20
61.05224983131623
 30
0.0
  0
VERTEX
  5
4B
330
47
100
AcDbEntity
  8
Ebene 1
 62
   250
370
    35
100
AcDbVertex
100
AcDb2dVertex
 10
331.3823615457316
 20
61.05224983131623
 30
0.0
  0
VERTEX
  5
4C
330
47
100
AcDbEntity
  8
Ebene 1
 62
   250
370
    35
100
AcDbVertex
100
AcDb2dVertex
 10
332.8096651204292
 20
66.79420190704906
 30
0.0
  0
VERTEX
  5
4D
330
47
100
AcDbEntity
  8
Ebene 1
 62
   250
370
    35
100
AcDbVertex
100
AcDb2dVertex
 10
338.3056252579934
 20
66.79420190704906
 30
0.0
  0
VERTEX
  5
4E
330
47
100
AcDbEntity
  8
Ebene 1
 62
   250
370
    35
100
AcDbVertex
100
AcDb2dVertex
 10
336.8755700166993
 20
61.05224983131623
 30
0.0
  0
VERTEX
  5
4F
330
47
100
AcDbEntity
  8
Ebene 1
 62
   250
370
    35
100
AcDbVertex
100
AcDb2dVertex
 10
338.1823026932324
 20
61.05224983131623
 30
0.0
  0
VERTEX
  5
50
330
47
100
AcDbEntity
  8
Ebene 1
 62
   250
370
    35
100
AcDbVertex
100
AcDb2dVertex
 10
341.1881371288988
 20
73.09079119085412
 30
0.0
  0
VERTEX
  5
51
330
47
100
AcDbEntity
  8
Ebene 1
 62
   250
370
    35
100
AcDbVertex
100
AcDb2dVertex
 10
339.875204106839
 20
73.09079119085412
 30
0.0
  0
VERTEX
  5
52
330
47
100
AcDbEntity
  8
Ebene 1
 62
   250
370
    35
100
AcDbVertex
100
AcDb2dVertex
 10
338.5864010841635
 20
67.91455354513317
 30
0.0
  0
VERTEX
  5
53
330
47
100
AcDbEntity
  8
Ebene 1
 62
   250
370
    35
100
AcDbVertex
100
AcDb2dVertex
 10
333.0931926131958
 20
67.91455354513317
 30
0.0
  0
VERTEX
  5
54
330
47
100
AcDbEntity
  8
Ebene 1
 62
   250
370
    35
100
AcDbVertex
100
AcDb2dVertex
 10
334.3902506356607
 20
73.09079119085412
 30
0.0
  0
SEQEND
  5
55
330
47
100
AcDbEntity
  8
Ebene 1
 62
   250
370
    35
  0
SPLINE
  5
56
330
1F
100
AcDbEntity
  8
Ebene 1
 62
   250
370
    35
100
AcDbSpline
210
0.0
220
0.0
230
1.0
 70
    11
 71
     3
 72
    35
 73
    31
 74
     0
 42
0.0000000001
 43
0.0000000001
 12
1.0
 22
0.0
 32
0.0
 13
1.0
 23
0.0
 33
0.0
 40
0.0
 40
0.0
 40
0.0
 40
0.0
 40
1.0
 40
1.0
 40
1.0
 40
2.0
 40
2.0
 40
2.0
 40
3.0
 40
3.0
 40
3.0
 40
4.0
 40
4.0
 40
4.0
 40
5.0
 40
5.0
 40
5.0
 40
6.0
 40
6.0
 40
6.0
 40
7.0
 40
7.0
 40
7.0
 40
8.0
 40
8.0
 40
8.0
 40
9.0
 40
9.0
 40
9.0
 40
10.0
 40
10.0
 40
10.0
 40
10.0
 10
323.708386741511
 20
68.01961076467516
 30
0.0
 10
323.9664436793719
 20
67.64305577428188
 30
0.0
 10
324.0966539538277
 20
67.14697967582673
 30
0.0
 10
324.0966539538277
 20
66.52997135823458
 30
0.0
 10
324.0966539538277
 20
66.01114109369327
 30
0.0
 10
324.0094825671628
 20
65.4671577742381
 30
0.0
 10
323.8361981271392
 20
64.89456417773508
 30
0.0
 10
323.6629136871156
 20
64.31957169240435
 30
0.0
 10
323.4320911930043
 20
63.81040753872755
 30
0.0
 10
323.1440915858806
 20
63.36424949455443
 30
0.0
 10
322.5256992716839
 20
62.41030313000274
 30
0.0
 10
321.7787981796278
 20
61.93352397549972
 30
0.0
 10
320.9034154241829
 20
61.93352397549972
 30
0.0
 10
320.2736365513611
 20
61.93352397549972
 30
0.0
 10
319.7999265634464
 20
62.16053646970816
 30
0.0
 10
319.4833437937453
 20
62.61357368037243
 30
0.0
 10
319.2070482452386
 20
63.0142249842463
 30
0.0
 10
319.0685476932165
 20
63.50656004647934
 30
0.0
 10
319.0685476932165
 20
64.09601642032995
 30
0.0
 10
319.0685476932165
 20
64.6124125182667
 30
0.0
 10
319.1522618577475
 20
65.15879472654954
 30
0.0
 10
319.3207132423388
 20
65.73138832305257
 30
0.0
 10
319.4881415714007
 20
66.30394664177874
 30
0.0
 10
319.7114146212601
 20
66.81106468439663
 30
0.0
 10
319.9949421140267
 20
67.25341272866694
 30
0.0
 10
320.6129734871483
 20
68.22873742600656
 30
0.0
 10
321.3616031902714
 20
68.71691130244109
 30
0.0
 10
322.2439003899843
 20
68.71691130244109
 30
0.0
 10
322.8967509288843
 20
68.71691130244109
 30
0.0
 10
323.3842192497812
 20
68.48471297503164
 30
0.0
 10
323.708386741511
 20
68.01961076467516
 30
0.0
  0
SPLINE
  5
57
330
1F
100
AcDbEntity
  8
Ebene 1
 62
   250
370
    35
100
AcDbSpline
210
0.0
220
0.0
230
1.0
 70
    11
 71
     3
 72
    32
 73
    28
 74
     0
 42
0.0000000001
 43
0.0000000001
 12
1.0
 22
0.0
 32
0.0
 13
1.0
 23
0.0
 33
0.0
 40
0.0
 40
0.0
 40
0.0
 40
0.0
 40
1.0
 40
1.0
 40
1.0
 40
2.0
 40
2.0
 40
2.0
 40
3.0
 40
3.0
 40
3.0
 40
4.0
 40
4.0
 40
4.0
 40
5.0
 40
5.0
 40
5.0
 40
6.0
 40
6.0
 40
6.0
 40
7.0
 40
7.0
 40
7.0
 40
8.0
 40
8.0
 40
8.0
 40
9.0
 40
9.0
 40
9.0
 40
9.0
 10
318.5235413182319
 20
67.16490078648063
 30
0.0
 10
318.0212210532694
 20
66.18199136711229
 30
0.0
 10
317.772830226273
 20
65.17085972624174
 30
0.0
 10
317.772830226273
 20
64.13080030833142
 30
0.0
 10
317.772830226273
 20
63.08347366838429
 30
0.0
 10
318.0691282742694
 20
62.26665202255647
 30
0.0
 10
318.6634177035522
 20
61.6785714820041
 30
0.0
 10
319.2156560227968
 20
61.13254205149003
 30
0.0
 10
319.9470348930267
 20
60.85864539181105
 30
0.0
 10
320.8593182030857
 20
60.85864539181105
 30
0.0
 10
321.6292909612199
 20
60.85864539181105
 30
0.0
 10
322.3238045546124
 20
61.06054165140122
 30
0.0
 10
322.9408481499815
 20
61.46704593184501
 30
0.0
 10
323.6880749190777
 20
61.96072314147248
 30
0.0
 10
324.290266585594
 20
62.70797701129734
 30
0.0
 10
324.7495044927277
 20
63.70739643024447
 30
0.0
 10
325.1729165853735
 20
64.6182686292284
 30
0.0
 10
325.3844339209737
 20
65.54981360546272
 30
0.0
 10
325.3844339209737
 20
66.50238413671617
 30
0.0
 10
325.3844339209737
 20
67.48391942757335
 30
0.0
 10
325.1453564270731
 20
68.25526631421864
 30
0.0
 10
324.6692475503307
 20
68.81371352219368
 30
0.0
 10
324.1173267310781
 20
69.46621128332485
 30
0.0
 10
323.3518342506075
 20
69.79383599718868
 30
0.0
 10
322.3761920532759
 20
69.79383599718868
 30
0.0
 10
320.7001448738133
 20
69.79383599718868
 30
0.0
 10
319.4164924065619
 20
68.91637185290799
 30
0.0
 10
318.5235413182319
 20
67.16490078648063
 30
0.0
  0
SPLINE
  5
58
330
1F
100
AcDbEntity
  8
Ebene 1
 62
   250
370
    35
100
AcDbSpline
210
0.0
220
0.0
230
1.0
 70
    11
 71
     3
 72
    35
 73
    31
 74
     0
 42
0.0000000001
 43
0.0000000001
 12
1.0
 22
0.0
 32
0.0
 13
1.0
 23
0.0
 33
0.0
 40
0.0
 40
0.0
 40
0.0
 40
0.0
 40
1.0
 40
1.0
 40
1.0
 40
2.0
 40
2.0
 40
2.0
 40
3.0
 40
3.0
 40
3.0
 40
4.0
 40
4.0
 40
4.0
 40
5.0
 40
5.0
 40
5.0
 40
6.0
 40
6.0
 40
6.0
 40
7.0
 40
7.0
 40
7.0
 40
8.0
 40
8.0
 40
8.0
 40
9.0
 40
9.0
 40
9.0
 40
10.0
 40
10.0
 40
10.0
 40
10.0
 10
314.7122361376886
 20
68.09852715155073
 30
0.0
 10
314.9940350193882
 20
67.73403887195552
 30
0.0
 10
315.1352872380068
 20
67.2558468952715
 30
0.0
 10
315.1352872380068
 20
66.66155746598865
 30
0.0
 10
315.1352872380068
 20
66.20852025532437
 30
0.0
 10
315.0612039065635
 20
65.70761110143697
 30
0.0
 10
314.9106736326261
 20
65.15879472654954
 30
0.0
 10
314.759755303143
 20
64.60757946283444
 30
0.0
 10
314.5613178082056
 20
64.10427142011935
 30
0.0
 10
314.3150083700449
 20
63.64537809849335
 30
0.0
 10
313.7090067188387
 20
62.52848368254326
 30
0.0
 10
312.9738178487061
 20
61.96933091903065
 30
0.0
 10
312.1105000929533
 20
61.96933091903065
 30
0.0
 10
311.59167769988
 20
61.96933091903065
 30
0.0
 10
311.1948026999792
 20
62.15813758088046
 30
0.0
 10
310.9184992900305
 20
62.53331673797551
 30
0.0
 10
310.6304562418235
 20
62.92190145028411
 30
0.0
 10
310.487157912146
 20
63.40732366012218
 30
0.0
 10
310.487157912146
 20
63.98954808971285
 30
0.0
 10
310.487157912146
 20
64.54799529768789
 30
0.0
 10
310.5781040209369
 20
65.12644500515263
 30
0.0
 10
310.7607017940562
 20
65.72655526762033
 30
0.0
 10
310.9415709561085
 20
66.3267008078649
 30
0.0
 10
311.1903145608737
 20
66.86101801645555
 30
0.0
 10
311.5010412196131
 20
67.3323291155425
 30
0.0
 10
312.0832656492037
 20
68.22048242621716
 30
0.0
 10
312.7416195212966
 20
68.66283047048748
 30
0.0
 10
313.4757853358998
 20
68.66283047048748
 30
0.0
 10
314.0114783777886
 20
68.66283047048748
 30
0.0
 10
314.4238755894897
 20
68.47642269746535
 30
0.0
 10
314.7122361376886
 20
68.09852715155073
 30
0.0
  0
SPLINE
  5
59
330
1F
100
AcDbEntity
  8
Ebene 1
 62
   250
370
    35
100
AcDbSpline
210
0.0
220
0.0
230
1.0
 70
    11
 71
     3
 72
    50
 73
    46
 74
     0
 42
0.0000000001
 43
0.0000000001
 12
1.0
 22
0.0
 32
0.0
 13
1.0
 23
0.0
 33
0.0
 40
0.0
 40
0.0
 40
0.0
 40
0.0
 40
1.0
 40
1.0
 40
1.0
 40
2.0
 40
2.0
 40
2.0
 40
3.0
 40
3.0
 40
3.0
 40
4.0
 40
4.0
 40
4.0
 40
5.0
 40
5.0
 40
5.0
 40
6.0
 40
6.0
 40
6.0
 40
7.0
 40
7.0
 40
7.0
 40
8.0
 40
8.0
 40
8.0
 40
9.0
 40
9.0
 40
9.0
 40
10.0
 40
10.0
 40
10.0
 40
11.0
 40
11.0
 40
11.0
 40
12.0
 40
12.0
 40
12.0
 40
13.0
 40
13.0
 40
13.0
 40
14.0
 40
14.0
 40
14.0
 40
15.0
 40
15.0
 40
15.0
 40
15.0
 10
316.8998463596558
 20
73.15213924484456
 30
0.0
 10
316.8998463596558
 20
73.15213924484456
 30
0.0
 10
315.6995905569436
 20
68.31142853500805
 30
0.0
 10
315.6995905569436
 20
68.31142853500805
 30
0.0
 10
315.2882516785488
 20
69.28188489913853
 30
0.0
 10
314.5613178082056
 20
69.76628405344714
 30
0.0
 10
313.5202353347657
 20
69.76628405344714
 30
0.0
 10
312.8446306297797
 20
69.76628405344714
 30
0.0
 10
312.217956201323
 20
69.57130553816242
 30
0.0
 10
311.6419406604628
 20
69.18405962385648
 30
0.0
 10
310.8791998465886
 20
68.67348609394305
 30
0.0
 10
310.2601101401607
 20
67.87250243509487
 30
0.0
 10
309.7902101521489
 20
66.78594690725966
 30
0.0
 10
309.389560440148
 20
65.849886375585
 30
0.0
 10
309.1911229452106
 20
64.90662917742726
 30
0.0
 10
309.1911229452106
 20
63.95370586840503
 30
0.0
 10
309.1911229452106
 20
63.00804978141962
 30
0.0
 10
309.425367383679
 20
62.26079591159476
 30
0.0
 10
309.8953026494677
 20
61.71335537000558
 30
0.0
 10
310.3772676371718
 20
61.14905205106883
 30
0.0
 10
311.0249323428707
 20
60.86827776256102
 30
0.0
 10
311.8355803777449
 20
60.86827776256102
 30
0.0
 10
312.459820639597
 20
60.86827776256102
 30
0.0
 10
312.9975950703217
 20
61.03570455396056
 30
0.0
 10
313.4509850587547
 20
61.36886942910249
 30
0.0
 10
313.6910856081848
 20
61.5459270409437
 30
0.0
 10
313.953940323701
 20
61.82807870041208
 30
0.0
 10
314.2360999214408
 20
62.21669869049756
 30
0.0
 10
314.1238028193675
 20
61.88805092110428
 30
0.0
 10
314.0676405985781
 20
61.54352815211601
 30
0.0
 10
314.0676405985781
 20
61.18489427237664
 30
0.0
 10
314.0676405985781
 20
61.18489427237664
 30
0.0
 10
314.0676405985781
 20
61.05224983131623
 30
0.0
 10
314.0676405985781
 20
61.05224983131623
 30
0.0
 10
314.0676405985781
 20
61.05224983131623
 30
0.0
 10
315.2668733457609
 20
61.05224983131623
 30
0.0
 10
315.2668733457609
 20
61.05224983131623
 30
0.0
 10
315.2548083460687
 20
61.4529348210939
 30
0.0
 10
315.412613810036
 20
62.29663813290258
 30
0.0
 10
315.7354054766216
 20
63.58441810004857
 30
0.0
 10
315.7354054766216
 20
63.58441810004857
 30
0.0
 10
318.1239146617606
 20
73.15213924484456
 30
0.0
 10
318.1239146617606
 20
73.15213924484456
 30
0.0
 10
318.1239146617606
 20
73.15213924484456
 30
0.0
 10
316.8998463596558
 20
73.15213924484456
 30
0.0
 10
316.8998463596558
 20
73.15213924484456
 30
0.0
  0
SPLINE
  5
5A
330
1F
100
AcDbEntity
  8
Ebene 1
 62
   250
370
    35
100
AcDbSpline
210
0.0
220
0.0
230
1.0
 70
    11
 71
     3
 72
    59
 73
    55
 74
     0
 42
0.0000000001
 43
0.0000000001
 12
1.0
 22
0.0
 32
0.0
 13
1.0
 23
0.0
 33
0.0
 40
0.0
 40
0.0
 40
0.0
 40
0.0
 40
1.0
 40
1.0
 40
1.0
 40
2.0
 40
2.0
 40
2.0
 40
3.0
 40
3.0
 40
3.0
 40
4.0
 40
4.0
 40
4.0
 40
5.0
 40
5.0
 40
5.0
 40
6.0
 40
6.0
 40
6.0
 40
7.0
 40
7.0
 40
7.0
 40
8.0
 40
8.0
 40
8.0
 40
9.0
 40
9.0
 40
9.0
 40
10.0
 40
10.0
 40
10.0
 40
11.0
 40
11.0
 40
11.0
 40
12.0
 40
12.0
 40
12.0
 40
13.0
 40
13.0
 40
13.0
 40
14.0
 40
14.0
 40
14.0
 40
15.0
 40
15.0
 40
15.0
 40
16.0
 40
16.0
 40
16.0
 40
17.0
 40
17.0
 40
17.0
 40
18.0
 40
18.0
 40
18.0
 40
18.0
 10
299.7439888139528
 20
66.10586192461007
 30
0.0
 10
299.485924303922
 20
65.07751472862317
 30
0.0
 10
299.3567370849956
 20
64.2679250270553
 30
0.0
 10
299.3567370849956
 20
63.68122031980116
 30
0.0
 10
299.3567370849956
 20
62.86334034066702
 30
0.0
 10
299.6437217998962
 20
62.19983591314998
 30
0.0
 10
300.2200901185252
 20
61.68823759286861
 30
0.0
 10
300.8798198239163
 20
61.10495482997162
 30
0.0
 10
301.8051559114201
 20
60.81419539294507
 30
0.0
 10
302.9985678254181
 20
60.81419539294507
 30
0.0
 10
304.1030444639072
 20
60.81419539294507
 30
0.0
 10
305.0452786065355
 20
61.08188316389356
 30
0.0
 10
305.8221658089377
 20
61.61655315025299
 30
0.0
 10
306.5621524567257
 20
62.13436035926485
 30
0.0
 10
307.0940707764886
 20
62.88951645111032
 30
0.0
 10
307.4169054787012
 20
63.88445559239398
 30
0.0
 10
307.5295396542678
 20
64.23105975021804
 30
0.0
 10
307.7028240942914
 20
64.89114223337793
 30
0.0
 10
307.9381268660661
 20
65.86883054176836
 30
0.0
 10
307.9381268660661
 20
65.86883054176836
 30
0.0
 10
309.7375051534935
 20
73.09079119085412
 30
0.0
 10
309.7375051534935
 20
73.09079119085412
 30
0.0
 10
309.7375051534935
 20
73.09079119085412
 30
0.0
 10
308.430788811781
 20
73.09079119085412
 30
0.0
 10
308.430788811781
 20
73.09079119085412
 30
0.0
 10
308.430788811781
 20
73.09079119085412
 30
0.0
 10
306.632778566035
 20
65.8857285968928
 30
0.0
 10
306.632778566035
 20
65.8857285968928
 30
0.0
 10
306.4736052367625
 20
65.23873416895457
 30
0.0
 10
306.3819888502109
 20
64.87424417825348
 30
0.0
 10
306.358881906356
 20
64.79293053935763
 30
0.0
 10
306.1763194110135
 20
64.14491141908253
 30
0.0
 10
305.9754554790618
 20
63.65123420945506
 30
0.0
 10
305.750481366322
 20
63.3091472063952
 30
0.0
 10
305.1693152700377
 20
62.43408035161836
 30
0.0
 10
304.2560165906029
 20
61.9965653627803
 30
0.0
 10
303.0175119916015
 20
61.9965653627803
 30
0.0
 10
302.3288192313937
 20
61.9965653627803
 30
0.0
 10
301.7727709122463
 20
62.14607258118827
 30
0.0
 10
301.3486967563987
 20
62.44614535131055
 30
0.0
 10
300.8966826012639
 20
62.76893700974212
 30
0.0
 10
300.6693249248324
 20
63.25090199744616
 30
0.0
 10
300.6693249248324
 20
63.89274586996025
 30
0.0
 10
300.6693249248324
 20
64.36264585797211
 30
0.0
 10
300.777161493202
 20
65.01549639687205
 30
0.0
 10
300.9876639878316
 20
65.849886375585
 30
0.0
 10
300.9876639878316
 20
65.849886375585
 30
0.0
 10
302.7866971465255
 20
73.09079119085412
 30
0.0
 10
302.7866971465255
 20
73.09079119085412
 30
0.0
 10
302.7866971465255
 20
73.09079119085412
 30
0.0
 10
301.4813411974591
 20
73.09079119085412
 30
0.0
 10
301.4813411974591
 20
73.09079119085412
 30
0.0
 10
301.4813411974591
 20
73.09079119085412
 30
0.0
 10
299.7439888139528
 20
66.10586192461007
 30
0.0
 10
299.7439888139528
 20
66.10586192461007
 30
0.0
  0
SPLINE
  5
5B
330
1F
100
AcDbEntity
  8
Ebene 1
 62
   250
370
    35
100
AcDbSpline
210
0.0
220
0.0
230
1.0
 70
    11
 71
     3
 72
    41
 73
    37
 74
     0
 42
0.0000000001
 43
0.0000000001
 12
1.0
 22
0.0
 32
0.0
 13
1.0
 23
0.0
 33
0.0
 40
0.0
 40
0.0
 40
0.0
 40
0.0
 40
1.0
 40
1.0
 40
1.0
 40
2.0
 40
2.0
 40
2.0
 40
3.0
 40
3.0
 40
3.0
 40
4.0
 40
4.0
 40
4.0
 40
5.0
 40
5.0
 40
5.0
 40
6.0
 40
6.0
 40
6.0
 40
7.0
 40
7.0
 40
7.0
 40
8.0
 40
8.0
 40
8.0
 40
9.0
 40
9.0
 40
9.0
 40
10.0
 40
10.0
 40
10.0
 40
11.0
 40
11.0
 40
11.0
 40
12.0
 40
12.0
 40
12.0
 40
12.0
 10
289.2750187310905
 20
60.96370261135304
 30
0.0
 10
288.7048665944905
 20
59.98220430305982
 30
0.0
 10
288.1991170918724
 20
59.34487598598608
 30
0.0
 10
287.7577921031316
 20
59.05101210459429
 30
0.0
 10
287.3698776685836
 20
58.78572322247348
 30
0.0
 10
286.7728365727043
 20
58.6565360035471
 30
0.0
 10
285.9670215932624
 20
58.6623921145088
 30
0.0
 10
285.9670215932624
 20
58.6623921145088
 30
0.0
 10
285.6669488231401
 20
57.45490436753661
 30
0.0
 10
285.6669488231401
 20
57.45490436753661
 30
0.0
 10
285.6669488231401
 20
57.45490436753661
 30
0.0
 10
285.9587665934729
 20
57.45490436753661
 30
0.0
 10
285.9587665934729
 20
57.45490436753661
 30
0.0
 10
287.1349276745777
 20
57.45490436753661
 30
0.0
 10
288.1023221501965
 20
57.79455880331574
 30
0.0
 10
288.8602226305618
 20
58.47704267479302
 30
0.0
 10
289.4652012262386
 20
59.01756877211416
 30
0.0
 10
290.2231089846806
 20
60.07660763398471
 30
0.0
 10
291.136732850261
 20
61.6523953715608
 30
0.0
 10
291.136732850261
 20
61.6523953715608
 30
0.0
 10
295.7225263443787
 20
69.59920850215404
 30
0.0
 10
295.7225263443787
 20
69.59920850215404
 30
0.0
 10
295.7225263443787
 20
69.59920850215404
 30
0.0
 10
294.4075193708423
 20
69.59920850215404
 30
0.0
 10
294.4075193708423
 20
69.59920850215404
 30
0.0
 10
294.4075193708423
 20
69.59920850215404
 30
0.0
 10
290.2279420401128
 20
62.02171841769414
 30
0.0
 10
290.2279420401128
 20
62.02171841769414
 30
0.0
 10
290.2279420401128
 20
62.02171841769414
 30
0.0
 10
289.7869698291407
 20
69.59920850215404
 30
0.0
 10
289.7869698291407
 20
69.59920850215404
 30
0.0
 10
289.7869698291407
 20
69.59920850215404
 30
0.0
 10
288.5074448617841
 20
69.59920850215404
 30
0.0
 10
288.5074448617841
 20
69.59920850215404
 30
0.0
 10
288.5074448617841
 20
69.59920850215404
 30
0.0
 10
289.2750187310905
 20
60.96370261135304
 30
0.0
 10
289.2750187310905
 20
60.96370261135304
 30
0.0
  0
SPLINE
  5
5C
330
1F
100
AcDbEntity
  8
Ebene 1
 62
   250
370
    35
100
AcDbSpline
210
0.0
220
0.0
230
1.0
 70
    11
 71
     3
 72
    38
 73
    34
 74
     0
 42
0.0000000001
 43
0.0000000001
 12
1.0
 22
0.0
 32
0.0
 13
1.0
 23
0.0
 33
0.0
 40
0.0
 40
0.0
 40
0.0
 40
0.0
 40
1.0
 40
1.0
 40
1.0
 40
2.0
 40
2.0
 40
2.0
 40
3.0
 40
3.0
 40
3.0
 40
4.0
 40
4.0
 40
4.0
 40
5.0
 40
5.0
 40
5.0
 40
6.0
 40
6.0
 40
6.0
 40
7.0
 40
7.0
 40
7.0
 40
8.0
 40
8.0
 40
8.0
 40
9.0
 40
9.0
 40
9.0
 40
10.0
 40
10.0
 40
10.0
 40
11.0
 40
11.0
 40
11.0
 40
11.0
 10
285.4823049389619
 20
68.18703909373704
 30
0.0
 10
285.7637863206696
 20
67.84047021368985
 30
0.0
 10
285.9050385392881
 20
67.3609041148135
 30
0.0
 10
285.9050385392881
 20
66.75010468595184
 30
0.0
 10
285.9050385392881
 20
66.26122525397976
 30
0.0
 10
285.8223474302866
 20
65.71830026783093
 30
0.0
 10
285.6586938233507
 20
65.11815472758636
 30
0.0
 10
285.4871379943941
 20
64.51183557638818
 30
0.0
 10
285.275612444235
 20
63.98954808971285
 30
0.0
 10
285.023094117344
 20
63.54857587874076
 30
0.0
 10
284.4064032997437
 20
62.50230757209996
 30
0.0
 10
283.6705441518504
 20
61.97762119659693
 30
0.0
 10
282.8185505624754
 20
61.97762119659693
 30
0.0
 10
282.3004258534717
 20
61.97762119659693
 30
0.0
 10
281.901469474761
 20
62.15813758088046
 30
0.0
 10
281.6189721518178
 20
62.51677146061984
 30
0.0
 10
281.3130714342167
 20
62.89195061771489
 30
0.0
 10
281.1611300492042
 20
63.3725397721207
 30
0.0
 10
281.1611300492042
 20
63.95370586840503
 30
0.0
 10
281.1611300492042
 20
64.5238652983035
 30
0.0
 10
281.2603311577845
 20
65.13021972727856
 30
0.0
 10
281.4594742082595
 20
65.77100526648631
 30
0.0
 10
281.6482527073656
 20
66.37700691769258
 30
0.0
 10
281.8832308641152
 20
66.88892273796586
 30
0.0
 10
282.1657000235755
 20
67.3061530050992
 30
0.0
 10
282.459916682736
 20
67.73403887195552
 30
0.0
 10
282.7965019519268
 20
68.06991687450285
 30
0.0
 10
283.1761613866854
 20
68.31142853500805
 30
0.0
 10
283.5558208214439
 20
68.5518818622069
 30
0.0
 10
283.9389022005595
 20
68.67348609394305
 30
0.0
 10
284.3271694128762
 20
68.67348609394305
 30
0.0
 10
284.8384221510124
 20
68.67348609394305
 30
0.0
 10
285.2229074455796
 20
68.50986602994548
 30
0.0
 10
285.4823049389619
 20
68.18703909373704
 30
0.0
  0
SPLINE
  5
5D
330
1F
100
AcDbEntity
  8
Ebene 1
 62
   250
370
    35
100
AcDbSpline
210
0.0
220
0.0
230
1.0
 70
    11
 71
     3
 72
    47
 73
    43
 74
     0
 42
0.0000000001
 43
0.0000000001
 12
1.0
 22
0.0
 32
0.0
 13
1.0
 23
0.0
 33
0.0
 40
0.0
 40
0.0
 40
0.0
 40
0.0
 40
1.0
 40
1.0
 40
1.0
 40
2.0
 40
2.0
 40
2.0
 40
3.0
 40
3.0
 40
3.0
 40
4.0
 40
4.0
 40
4.0
 40
5.0
 40
5.0
 40
5.0
 40
6.0
 40
6.0
 40
6.0
 40
7.0
 40
7.0
 40
7.0
 40
8.0
 40
8.0
 40
8.0
 40
9.0
 40
9.0
 40
9.0
 40
10.0
 40
10.0
 40
10.0
 40
11.0
 40
11.0
 40
11.0
 40
12.0
 40
12.0
 40
12.0
 40
13.0
 40
13.0
 40
13.0
 40
14.0
 40
14.0
 40
14.0
 40
14.0
 10
279.6697267539197
 20
63.4693419918733
 30
0.0
 10
279.3638331506126
 20
62.26319480042245
 30
0.0
 10
279.1202471524423
 20
61.457416651302
 30
0.0
 10
278.9379951059211
 20
61.05224983131623
 30
0.0
 10
278.9379951059211
 20
61.05224983131623
 30
0.0
 10
280.0938361875442
 20
61.05224983131623
 30
0.0
 10
280.0938361875442
 20
61.05224983131623
 30
0.0
 10
280.3050089599346
 20
61.4229487107478
 30
0.0
 10
280.460725067073
 20
61.85566592193049
 30
0.0
 10
280.5609915965262
 20
62.34934313155796
 30
0.0
 10
280.9661497764008
 20
61.3667864899584
 30
0.0
 10
281.7192244794105
 20
60.87656650246495
 30
0.0
 10
282.8185505624754
 20
60.87656650246495
 30
0.0
 10
283.5127466558761
 20
60.87656650246495
 30
0.0
 10
284.1504277507186
 20
61.07637983070062
 30
0.0
 10
284.7319819025486
 20
61.47667676493264
 30
0.0
 10
285.5374441042218
 20
62.03378341738634
 30
0.0
 10
286.1751251990643
 20
62.90055839527307
 30
0.0
 10
286.6467610394492
 20
64.07809530967604
 30
0.0
 10
287.0102207333148
 20
64.99380056409223
 30
0.0
 10
287.1924657286654
 20
65.90019248541269
 30
0.0
 10
287.1924657286654
 20
66.79420190704906
 30
0.0
 10
287.1924657286654
 20
67.71749188349396
 30
0.0
 10
286.9633718456211
 20
68.44647186489614
 30
0.0
 10
286.5044785239951
 20
68.98216664942143
 30
0.0
 10
286.0579749284854
 20
69.51066128219085
 30
0.0
 10
285.4319988291342
 20
69.77453905323654
 30
0.0
 10
284.6268894052297
 20
69.77453905323654
 30
0.0
 10
284.0498508088401
 20
69.77453905323654
 30
0.0
 10
283.5268577666272
 20
69.62538461259734
 30
0.0
 10
283.055934723086
 20
69.32495906470628
 30
0.0
 10
282.7617180639253
 20
69.13756351393158
 30
0.0
 10
282.4533902940137
 20
68.84920296573272
 30
0.0
 10
282.1305633578052
 20
68.46093575341602
 30
0.0
 10
282.1305633578052
 20
68.46093575341602
 30
0.0
 10
283.3036199945448
 20
73.15213924484456
 30
0.0
 10
283.3036199945448
 20
73.15213924484456
 30
0.0
 10
283.3036199945448
 20
73.15213924484456
 30
0.0
 10
282.086466136708
 20
73.15213924484456
 30
0.0
 10
282.086466136708
 20
73.15213924484456
 30
0.0
 10
282.086466136708
 20
73.15213924484456
 30
0.0
 10
279.6697267539197
 20
63.4693419918733
 30
0.0
 10
279.6697267539197
 20
63.4693419918733
 30
0.0
  0
SPLINE
  5
5E
330
1F
100
AcDbEntity
  8
Ebene 1
 62
   250
370
    35
100
AcDbSpline
210
0.0
220
0.0
230
1.0
 70
    11
 71
     3
 72
   101
 73
    97
 74
     0
 42
0.0000000001
 43
0.0000000001
 12
1.0
 22
0.0
 32
0.0
 13
1.0
 23
0.0
 33
0.0
 40
0.0
 40
0.0
 40
0.0
 40
0.0
 40
1.0
 40
1.0
 40
1.0
 40
2.0
 40
2.0
 40
2.0
 40
3.0
 40
3.0
 40
3.0
 40
4.0
 40
4.0
 40
4.0
 40
5.0
 40
5.0
 40
5.0
 40
6.0
 40
6.0
 40
6.0
 40
7.0
 40
7.0
 40
7.0
 40
8.0
 40
8.0
 40
8.0
 40
9.0
 40
9.0
 40
9.0
 40
10.0
 40
10.0
 40
10.0
 40
11.0
 40
11.0
 40
11.0
 40
12.0
 40
12.0
 40
12.0
 40
13.0
 40
13.0
 40
13.0
 40
14.0
 40
14.0
 40
14.0
 40
15.0
 40
15.0
 40
15.0
 40
16.0
 40
16.0
 40
16.0
 40
17.0
 40
17.0
 40
17.0
 40
18.0
 40
18.0
 40
18.0
 40
19.0
 40
19.0
 40
19.0
 40
20.0
 40
20.0
 40
20.0
 40
21.0
 40
21.0
 40
21.0
 40
22.0
 40
22.0
 40
22.0
 40
23.0
 40
23.0
 40
23.0
 40
24.0
 40
24.0
 40
24.0
 40
25.0
 40
25.0
 40
25.0
 40
26.0
 40
26.0
 40
26.0
 40
27.0
 40
27.0
 40
27.0
 40
28.0
 40
28.0
 40
28.0
 40
29.0
 40
29.0
 40
29.0
 40
30.0
 40
30.0
 40
30.0
 40
31.0
 40
31.0
 40
31.0
 40
32.0
 40
32.0
 40
32.0
 40
32.0
 10
302.0432103497913
 20
95.8580453322353
 30
0.0
 10
302.6282217237553
 20
94.9323564669627
 30
0.0
 10
302.9203569940801
 20
93.83165455059951
 30
0.0
 10
302.9203569940801
 20
92.55283513878047
 30
0.0
 10
302.9203569940801
 20
91.00082462281999
 30
0.0
 10
302.5500108924173
 20
89.52804799372699
 30
0.0
 10
301.8062142447264
 20
88.13517775574411
 30
0.0
 10
300.0202767902895
 20
84.75725783766221
 30
0.0
 10
296.6892079863833
 20
83.06847538074663
 30
0.0
 10
291.812655055239
 20
83.06847538074663
 30
0.0
 10
288.6721215242495
 20
83.06847538074663
 30
0.0
 10
286.142034644353
 20
83.74683175232921
 30
0.0
 10
284.2265571932209
 20
85.10350921771749
 30
0.0
 10
283.1830405531765
 20
85.84593003211009
 30
0.0
 10
282.3872444623678
 20
86.86154195064411
 30
0.0
 10
281.8384280874805
 20
88.15411969544549
 30
0.0
 10
281.4508664307013
 20
89.06605022773576
 30
0.0
 10
281.2538047690621
 20
90.02998020314385
 30
0.0
 10
281.2538047690621
 20
91.04767351051366
 30
0.0
 10
281.2538047690621
 20
91.62196044030684
 30
0.0
 10
281.3299342115643
 20
92.30546736731355
 30
0.0
 10
281.4891075408368
 20
93.10165151366787
 30
0.0
 10
281.4891075408368
 20
93.10165151366787
 30
0.0
 10
288.1374515378901
 20
93.10165151366787
 30
0.0
 10
288.1374515378901
 20
93.10165151366787
 30
0.0
 10
288.0836882059284
 20
92.59280485998298
 30
0.0
 10
288.0595934843208
 20
92.1618162598673
 30
0.0
 10
288.0595934843208
 20
91.80903849108962
 30
0.0
 10
288.0595934843208
 20
90.85717351537373
 30
0.0
 10
288.3448495881545
 20
90.10783825671308
 30
0.0
 10
288.9194892957164
 20
89.56110553316522
 30
0.0
 10
289.6098753892143
 20
88.89654050983809
 30
0.0
 10
290.6223828633831
 20
88.56270690724378
 30
0.0
 10
291.9511556072611
 20
88.56270690724378
 30
0.0
 10
293.174871131597
 20
88.56270690724378
 30
0.0
 10
294.12123277412
 20
88.82386828946989
 30
0.0
 10
294.7857955349434
 20
89.34647327613712
 30
0.0
 10
295.4641166287491
 20
89.89320826218875
 30
0.0
 10
295.8031360645444
 20
90.61668491039799
 30
0.0
 10
295.8031360645444
 20
91.51655275489846
 30
0.0
 10
295.8031360645444
 20
92.39023986515083
 30
0.0
 10
295.3721474644287
 20
93.08785790290867
 30
0.0
 10
294.5122516530332
 20
93.610145389584
 30
0.0
 10
294.0175161100993
 20
93.90951260416874
 30
0.0
 10
292.844141973368
 20
94.49621731142287
 30
0.0
 10
290.9927289650459
 20
95.37022423356954
 30
0.0
 10
288.9194892957164
 20
96.33383670898574
 30
0.0
 10
287.4918329432501
 20
97.15580891023771
 30
0.0
 10
286.7080665743567
 20
97.83243667075327
 30
0.0
 10
285.3651827197277
 20
98.97966997481825
 30
0.0
 10
284.6971627367703
 20
100.4335024377279
 30
0.0
 10
284.6971627367703
 20
102.1949571150117
 30
0.0
 10
284.6971627367703
 20
103.7073506875384
 30
0.0
 10
285.13160855902
 20
105.1470720396969
 30
0.0
 10
286.0056154811666
 20
106.5175431158444
 30
0.0
 10
287.1128790640291
 20
108.2617822380118
 30
0.0
 10
288.7568587443099
 20
109.514601928272
 30
0.0
 10
290.93381507766
 20
110.2707810756469
 30
0.0
 10
292.2887992097582
 20
110.7398343970137
 30
0.0
 10
293.8063433377091
 20
110.9751371687884
 30
0.0
 10
295.4917038502675
 20
110.9751371687884
 30
0.0
 10
298.5788268270639
 20
110.9751371687884
 30
0.0
 10
300.9859353767646
 20
110.1860438555865
 30
0.0
 10
302.7074556106227
 20
108.6079983402902
 30
0.0
 10
304.1922619616311
 20
107.253049485969
 30
0.0
 10
304.9364113870907
 20
105.5501559183023
 30
0.0
 10
304.9364113870907
 20
103.5047856927063
 30
0.0
 10
304.9364113870907
 20
103.243659588257
 30
0.0
 10
304.9226530541084
 20
102.9043226524698
 30
0.0
 10
304.8964416658882
 20
102.4874451631052
 30
0.0
 10
304.8964416658882
 20
102.4874451631052
 30
0.0
 10
298.2291610365538
 20
102.409587109536
 30
0.0
 10
298.2291610365538
 20
102.409587109536
 30
0.0
 10
298.2291610365538
 20
103.2712115319986
 30
0.0
 10
298.0910057283982
 20
103.9151015155716
 30
0.0
 10
297.8174693699902
 20
104.3457373379185
 30
0.0
 10
297.3224088035623
 20
105.1003995408877
 30
0.0
 10
296.3811977164635
 20
105.4810820311756
 30
0.0
 10
295.0021541405347
 20
105.4810820311756
 30
0.0
 10
294.0485252759749
 20
105.4810820311756
 30
0.0
 10
293.2734019624166
 20
105.2907231471432
 30
0.0
 10
292.6746322554703
 20
104.9134978789892
 30
0.0
 10
292.0100694946469
 20
104.4945742785658
 30
0.0
 10
291.6762358920526
 20
103.9013079048124
 30
0.0
 10
291.6762358920526
 20
103.1327109799765
 30
0.0
 10
291.6762358920526
 20
102.5184543289808
 30
0.0
 10
291.9821721492264
 20
102.0185682306228
 30
0.0
 10
292.595045590834
 20
101.6271965739409
 30
0.0
 10
293.0260415934102
 20
101.3660704694916
 30
0.0
 10
294.2580047150751
 20
100.75527104063
 30
0.0
 10
296.2913099409789
 20
99.78788384308788
 30
0.0
 10
298.0111015637701
 20
98.97966997481825
 30
0.0
 10
299.0804415364889
 20
98.45187915494998
 30
0.0
 10
299.4993651369124
 20
98.20451386433777
 30
0.0
 10
300.6586281628927
 20
97.48653806846677
 30
0.0
 10
301.5064942523729
 20
96.70591386471256
 30
0.0
 10
302.0432103497913
 20
95.8580453322353
 30
0.0
  0
SPLINE
  5
5F
330
1F
100
AcDbEntity
  8
Ebene 1
 62
   250
370
    35
100
AcDbSpline
210
0.0
220
0.0
230
1.0
 70
    11
 71
     3
 72
   227
 73
   223
 74
     0
 42
0.0000000001
 43
0.0000000001
 12
1.0
 22
0.0
 32
0.0
 13
1.0
 23
0.0
 33
0.0
 40
0.0
 40
0.0
 40
0.0
 40
0.0
 40
1.0
 40
1.0
 40
1.0
 40
2.0
 40
2.0
 40
2.0
 40
3.0
 40
3.0
 40
3.0
 40
4.0
 40
4.0
 40
4.0
 40
5.0
 40
5.0
 40
5.0
 40
6.0
 40
6.0
 40
6.0
 40
7.0
 40
7.0
 40
7.0
 40
8.0
 40
8.0
 40
8.0
 40
9.0
 40
9.0
 40
9.0
 40
10.0
 40
10.0
 40
10.0
 40
11.0
 40
11.0
 40
11.0
 40
12.0
 40
12.0
 40
12.0
 40
13.0
 40
13.0
 40
13.0
 40
14.0
 40
14.0
 40
14.0
 40
15.0
 40
15.0
 40
15.0
 40
16.0
 40
16.0
 40
16.0
 40
17.0
 40
17.0
 40
17.0
 40
18.0
 40
18.0
 40
18.0
 40
19.0
 40
19.0
 40
19.0
 40
20.0
 40
20.0
 40
20.0
 40
21.0
 40
21.0
 40
21.0
 40
22.0
 40
22.0
 40
22.0
 40
23.0
 40
23.0
 40
23.0
 40
24.0
 40
24.0
 40
24.0
 40
25.0
 40
25.0
 40
25.0
 40
26.0
 40
26.0
 40
26.0
 40
27.0
 40
27.0
 40
27.0
 40
28.0
 40
28.0
 40
28.0
 40
29.0
 40
29.0
 40
29.0
 40
30.0
 40
30.0
 40
30.0
 40
31.0
 40
31.0
 40
31.0
 40
32.0
 40
32.0
 40
32.0
 40
33.0
 40
33.0
 40
33.0
 40
34.0
 40
34.0
 40
34.0
 40
35.0
 40
35.0
 40
35.0
 40
36.0
 40
36.0
 40
36.0
 40
37.0
 40
37.0
 40
37.0
 40
38.0
 40
38.0
 40
38.0
 40
39.0
 40
39.0
 40
39.0
 40
40.0
 40
40.0
 40
40.0
 40
41.0
 40
41.0
 40
41.0
 40
42.0
 40
42.0
 40
42.0
 40
43.0
 40
43.0
 40
43.0
 40
44.0
 40
44.0
 40
44.0
 40
45.0
 40
45.0
 40
45.0
 40
46.0
 40
46.0
 40
46.0
 40
47.0
 40
47.0
 40
47.0
 40
48.0
 40
48.0
 40
48.0
 40
49.0
 40
49.0
 40
49.0
 40
50.0
 40
50.0
 40
50.0
 40
51.0
 40
51.0
 40
51.0
 40
52.0
 40
52.0
 40
52.0
 40
53.0
 40
53.0
 40
53.0
 40
54.0
 40
54.0
 40
54.0
 40
55.0
 40
55.0
 40
55.0
 40
56.0
 40
56.0
 40
56.0
 40
57.0
 40
57.0
 40
57.0
 40
58.0
 40
58.0
 40
58.0
 40
59.0
 40
59.0
 40
59.0
 40
60.0
 40
60.0
 40
60.0
 40
61.0
 40
61.0
 40
61.0
 40
62.0
 40
62.0
 40
62.0
 40
63.0
 40
63.0
 40
63.0
 40
64.0
 40
64.0
 40
64.0
 40
65.0
 40
65.0
 40
65.0
 40
66.0
 40
66.0
 40
66.0
 40
67.0
 40
67.0
 40
67.0
 40
68.0
 40
68.0
 40
68.0
 40
69.0
 40
69.0
 40
69.0
 40
70.0
 40
70.0
 40
70.0
 40
71.0
 40
71.0
 40
71.0
 40
72.0
 40
72.0
 40
72.0
 40
73.0
 40
73.0
 40
73.0
 40
74.0
 40
74.0
 40
74.0
 40
74.0
 10
370.6033918517937
 20
105.0294206538096
 30
0.0
 10
370.9665060183696
 20
105.564090640169
 30
0.0
 10
371.6190037959841
 20
105.8305789667037
 30
0.0
 10
372.5567576846385
 20
105.8305789667037
 30
0.0
 10
373.3270832400016
 20
105.8305789667037
 30
0.0
 10
374.2269487953325
 20
105.7215353583745
 30
0.0
 10
375.2546257395199
 20
105.500026197359
 30
0.0
 10
375.2546257395199
 20
105.500026197359
 30
0.0
 10
376.4693454614381
 20
110.3694882953509
 30
0.0
 10
376.4693454614381
 20
110.3694882953509
 30
0.0
 10
374.75953740631
 20
110.6809205096278
 30
0.0
 10
373.3009071288973
 20
110.8383652278333
 30
0.0
 10
372.0878807403116
 20
110.8383652278333
 30
0.0
 10
368.4643237967728
 20
110.8383652278333
 30
0.0
 10
366.0141762973856
 20
109.5543952605901
 30
0.0
 10
364.7353568532608
 20
106.9846914372598
 30
0.0
 10
364.3043682422575
 20
106.1247956258642
 30
0.0
 10
363.9133493534659
 20
104.9844767660673
 30
0.0
 10
363.562300186887
 20
103.5636995800921
 30
0.0
 10
363.562300186887
 20
103.5636995800921
 30
0.0
 10
363.3459415758303
 20
102.7038037686966
 30
0.0
 10
363.3459415758303
 20
102.7038037686966
 30
0.0
 10
363.3459415758303
 20
102.7038037686966
 30
0.0
 10
359.0230379658
 20
102.7038037686966
 30
0.0
 10
359.0230379658
 20
102.7038037686966
 30
0.0
 10
359.0230379658
 20
102.7038037686966
 30
0.0
 10
358.6678612992218
 20
102.7038037686966
 30
0.0
 10
358.6678612992218
 20
102.7038037686966
 30
0.0
 10
358.6678612992218
 20
102.7038037686966
 30
0.0
 10
354.6243576891215
 20
102.7038037686966
 30
0.0
 10
354.6243576891215
 20
102.7038037686966
 30
0.0
 10
354.6243576891215
 20
102.7038037686966
 30
0.0
 10
354.8217368557392
 20
103.5047856927063
 30
0.0
 10
354.8217368557392
 20
103.5047856927063
 30
0.0
 10
354.9636946334812
 20
104.1173137326349
 30
0.0
 10
355.1783246334278
 20
104.6261603863198
 30
0.0
 10
355.4653093555784
 20
105.0294206538096
 30
0.0
 10
355.8321982443753
 20
105.564090640169
 30
0.0
 10
356.4829674108791
 20
105.8305789667037
 30
0.0
 10
357.4207212995335
 20
105.8305789667037
 30
0.0
 10
358.1890007437863
 20
105.8305789667037
 30
0.0
 10
359.088831021339
 20
105.7215353583745
 30
0.0
 10
360.1203179655255
 20
105.500026197359
 30
0.0
 10
360.1203179655255
 20
105.500026197359
 30
0.0
 10
361.3333443541113
 20
110.3694882953509
 30
0.0
 10
361.3333443541113
 20
110.3694882953509
 30
0.0
 10
359.6252649100938
 20
110.6809205096278
 30
0.0
 10
358.1648707437923
 20
110.8383652278333
 30
0.0
 10
356.9535729663173
 20
110.8383652278333
 30
0.0
 10
353.3265940783353
 20
110.8383652278333
 30
0.0
 10
350.876437715063
 20
109.5543952605901
 30
0.0
 10
349.5993116365341
 20
106.9846914372598
 30
0.0
 10
349.1683583141952
 20
106.1247956258642
 30
0.0
 10
348.7773394352821
 20
104.9844767660673
 30
0.0
 10
348.4259374998027
 20
103.5636995800921
 30
0.0
 10
348.4259374998027
 20
103.5636995800921
 30
0.0
 10
348.2095788942113
 20
102.7038037686966
 30
0.0
 10
348.2095788942113
 20
102.7038037686966
 30
0.0
 10
348.2095788942113
 20
102.7038037686966
 30
0.0
 10
342.578892926751
 20
102.7038037686966
 30
0.0
 10
342.578892926751
 20
102.7038037686966
 30
0.0
 10
342.578892926751
 20
102.7038037686966
 30
0.0
 10
341.7696560029519
 20
102.7038037686966
 30
0.0
 10
341.7696560029519
 20
102.7038037686966
 30
0.0
 10
341.7696560029519
 20
102.7038037686966
 30
0.0
 10
335.9116047635143
 20
102.7038037686966
 30
0.0
 10
335.9116047635143
 20
102.7038037686966
 30
0.0
 10
335.9116047635143
 20
102.7038037686966
 30
0.0
 10
333.3887851056546
 20
92.6324218034167
 30
0.0
 10
333.3887851056546
 20
92.6324218034167
 30
0.0
 10
333.087654002226
 20
91.43181322293567
 30
0.0
 10
332.7414378999476
 20
90.54570831069722
 30
0.0
 10
332.3504190210344
 20
89.97106631575798
 30
0.0
 10
331.7099862595954
 20
89.03331245079319
 30
0.0
 10
330.8138954491233
 20
88.56270690724378
 30
0.0
 10
329.6525510343072
 20
88.56270690724378
 30
0.0
 10
329.0383026955183
 20
88.56270690724378
 30
0.0
 10
328.5294477296266
 20
88.71327245895809
 30
0.0
 10
328.1263991287981
 20
89.01263967354282
 30
0.0
 10
327.722962472424
 20
89.31377077697144
 30
0.0
 10
327.5207502553607
 20
89.74955715474249
 30
0.0
 10
327.5207502553607
 20
90.32419686230443
 30
0.0
 10
327.5207502553607
 20
90.80686740554603
 30
0.0
 10
327.6175524751133
 20
91.44384294485099
 30
0.0
 10
327.8149669145212
 20
92.23967431343652
 30
0.0
 10
327.8149669145212
 20
92.23967431343652
 30
0.0
 10
330.4328954588434
 20
102.7038037686966
 30
0.0
 10
330.4328954588434
 20
102.7038037686966
 30
0.0
 10
330.4328954588434
 20
102.7038037686966
 30
0.0
 10
324.7939544915937
 20
102.7038037686966
 30
0.0
 10
324.7939544915937
 20
102.7038037686966
 30
0.0
 10
324.7939544915937
 20
102.7038037686966
 30
0.0
 10
323.7466360301746
 20
102.7038037686966
 30
0.0
 10
323.7466360301746
 20
102.7038037686966
 30
0.0
 10
323.7466360301746
 20
102.7038037686966
 30
0.0
 10
316.1395397123862
 20
102.7038037686966
 30
0.0
 10
316.1395397123862
 20
102.7038037686966
 30
0.0
 10
316.1395397123862
 20
102.7038037686966
 30
0.0
 10
317.5482166208923
 20
107.9624150234271
 30
0.0
 10
317.5482166208923
 20
107.9624150234271
 30
0.0
 10
317.5482166208923
 20
107.9624150234271
 30
0.0
 10
311.1527437284988
 20
107.9624150234271
 30
0.0
 10
311.1527437284988
 20
107.9624150234271
 30
0.0
 10
311.1527437284988
 20
107.9624150234271
 30
0.0
 10
309.7058257098573
 20
102.7038037686966
 30
0.0
 10
309.7058257098573
 20
102.7038037686966
 30
0.0
 10
309.7058257098573
 20
102.7038037686966
 30
0.0
 10
305.8700377521608
 20
102.7038037686966
 30
0.0
 10
305.8700377521608
 20
102.7038037686966
 30
0.0
 10
305.8700377521608
 20
102.7038037686966
 30
0.0
 10
304.6587400052858
 20
98.02985111016125
 30
0.0
 10
304.6587400052858
 20
98.02985111016125
 30
0.0
 10
304.6587400052858
 20
98.02985111016125
 30
0.0
 10
308.3370832447767
 20
98.02985111016125
 30
0.0
 10
308.3370832447767
 20
98.02985111016125
 30
0.0
 10
308.3370832447767
 20
98.02985111016125
 30
0.0
 10
306.5945374558995
 20
91.92824442146265
 30
0.0
 10
306.5945374558995
 20
91.92824442146265
 30
0.0
 10
305.9578794165864
 20
89.68549271193245
 30
0.0
 10
305.6392152580495
 20
88.23716358221574
 30
0.0
 10
305.6392152580495
 20
87.58671193214349
 30
0.0
 10
305.6392152580495
 20
86.19010002332958
 30
0.0
 10
306.1983680215621
 20
85.10350921771749
 30
0.0
 10
307.3214713262427
 20
84.32147145989116
 30
0.0
 10
308.3370832447767
 20
83.61521036679827
 30
0.0
 10
309.5294368254684
 20
83.26588982015461
 30
0.0
 10
310.8964506794819
 20
83.26588982015461
 30
0.0
 10
312.4625723061935
 20
83.26588982015461
 30
0.0
 10
314.1634276992368
 20
83.64311508830858
 30
0.0
 10
316.0027677714311
 20
84.39932951346039
 30
0.0
 10
316.0027677714311
 20
84.39932951346039
 30
0.0
 10
317.1950860743459
 20
89.17008439174829
 30
0.0
 10
317.1950860743459
 20
89.17008439174829
 30
0.0
 10
315.8005202765909
 20
88.77874801284322
 30
0.0
 10
314.7242658596039
 20
88.58337968449415
 30
0.0
 10
313.969815323296
 20
88.58337968449415
 30
0.0
 10
313.1219492338158
 20
88.58337968449415
 30
0.0
 10
312.6978750779681
 20
88.87071942222659
 30
0.0
 10
312.6978750779681
 20
89.44327775541727
 30
0.0
 10
312.6978750779681
 20
89.6927246561924
 30
0.0
 10
312.8067422974129
 20
90.25152464193623
 30
0.0
 10
313.0282514584284
 20
91.12553156408289
 30
0.0
 10
313.0282514584284
 20
91.12553156408289
 30
0.0
 10
314.8693360323937
 20
98.02985111016125
 30
0.0
 10
314.8693360323937
 20
98.02985111016125
 30
0.0
 10
314.8693360323937
 20
98.02985111016125
 30
0.0
 10
322.580803159167
 20
98.02985111016125
 30
0.0
 10
322.580803159167
 20
98.02985111016125
 30
0.0
 10
322.580803159167
 20
98.02985111016125
 30
0.0
 10
321.2634332530174
 20
92.74852096712144
 30
0.0
 10
321.2634332530174
 20
92.74852096712144
 30
0.0
 10
320.8844712579996
 20
91.22233608830572
 30
0.0
 10
320.6942887628515
 20
89.91423608863255
 30
0.0
 10
320.6942887628515
 20
88.81868245626886
 30
0.0
 10
320.6942887628515
 20
87.18846110897037
 30
0.0
 10
321.3343687465217
 20
85.84074419890905
 30
0.0
 10
322.6114948250506
 20
84.7693249788074
 30
0.0
 10
323.8124561833005
 20
83.76577591851257
 30
0.0
 10
325.3107033672992
 20
83.26588982015461
 30
0.0
 10
327.1104344324954
 20
83.26588982015461
 30
0.0
 10
329.1041227149655
 20
83.26588982015461
 30
0.0
 10
330.9106976688759
 20
84.02725480073057
 30
0.0
 10
332.5268079054233
 20
85.55344198401653
 30
0.0
 10
332.447221240787
 20
84.97880227645459
 30
0.0
 10
332.4089801306515
 20
84.35248062576672
 30
0.0
 10
332.4089801306515
 20
83.67412425418414
 30
0.0
 10
332.4089801306515
 20
83.67412425418414
 30
0.0
 10
338.569503029039
 20
83.67412425418414
 30
0.0
 10
338.569503029039
 20
83.67412425418414
 30
0.0
 10
338.5174683081443
 20
84.31459442336595
 30
0.0
 10
338.4899249153775
 20
84.78346922588238
 30
0.0
 10
338.4899249153775
 20
85.08283644046712
 30
0.0
 10
338.4899249153775
 20
85.90276253066017
 30
0.0
 10
338.6804516373196
 20
87.06410694547625
 30
0.0
 10
339.0573241277048
 20
88.56270690724378
 30
0.0
 10
339.0573241277048
 20
88.56270690724378
 30
0.0
 10
341.4148054702022
 20
98.02985111016125
 30
0.0
 10
341.4148054702022
 20
98.02985111016125
 30
0.0
 10
341.4148054702022
 20
98.02985111016125
 30
0.0
 10
347.0365222574718
 20
98.02985111016125
 30
0.0
 10
347.0365222574718
 20
98.02985111016125
 30
0.0
 10
347.0365222574718
 20
98.02985111016125
 30
0.0
 10
343.4594615153969
 20
83.67412425418414
 30
0.0
 10
343.4594615153969
 20
83.67412425418414
 30
0.0
 10
343.4594615153969
 20
83.67412425418414
 30
0.0
 10
350.1271024564023
 20
83.67412425418414
 30
0.0
 10
350.1271024564023
 20
83.67412425418414
 30
0.0
 10
350.1271024564023
 20
83.67412425418414
 30
0.0
 10
353.7072765782398
 20
98.02985111016125
 30
0.0
 10
353.7072765782398
 20
98.02985111016125
 30
0.0
 10
353.7072765782398
 20
98.02985111016125
 30
0.0
 10
357.4565635217467
 20
98.02985111016125
 30
0.0
 10
357.4565635217467
 20
98.02985111016125
 30
0.0
 10
357.4565635217467
 20
98.02985111016125
 30
0.0
 10
357.7927960216629
 20
98.02985111016125
 30
0.0
 10
357.7927960216629
 20
98.02985111016125
 30
0.0
 10
357.7927960216629
 20
98.02985111016125
 30
0.0
 10
362.1725674094569
 20
98.02985111016125
 30
0.0
 10
362.1725674094569
 20
98.02985111016125
 30
0.0
 10
362.1725674094569
 20
98.02985111016125
 30
0.0
 10
358.5958593547957
 20
83.67412425418414
 30
0.0
 10
358.5958593547957
 20
83.67412425418414
 30
0.0
 10
358.5958593547957
 20
83.67412425418414
 30
0.0
 10
365.2631476864623
 20
83.67412425418414
 30
0.0
 10
365.2631476864623
 20
83.67412425418414
 30
0.0
 10
365.2631476864623
 20
83.67412425418414
 30
0.0
 10
368.8415843522342
 20
98.02985111016125
 30
0.0
 10
368.8415843522342
 20
98.02985111016125
 30
0.0
 10
368.8415843522342
 20
98.02985111016125
 30
0.0
 10
372.9288324067679
 20
98.02985111016125
 30
0.0
 10
372.9288324067679
 20
98.02985111016125
 30
0.0
 10
372.9288324067679
 20
98.02985111016125
 30
0.0
 10
374.1608029620157
 20
102.7038037686966
 30
0.0
 10
374.1608029620157
 20
102.7038037686966
 30
0.0
 10
374.1608029620157
 20
102.7038037686966
 30
0.0
 10
369.7603587964489
 20
102.7038037686966
 30
0.0
 10
369.7603587964489
 20
102.7038037686966
 30
0.0
 10
369.7603587964489
 20
102.7038037686966
 30
0.0
 10
369.956044629733
 20
103.5047856927063
 30
0.0
 10
369.956044629733
 20
103.5047856927063
 30
0.0
 10
370.0980024074755
 20
104.1173137326349
 30
0.0
 10
370.3160543518654
 20
104.6261603863198
 30
0.0
 10
370.6033918517937
 20
105.0294206538096
 30
0.0
  0
SPLINE
  5
60
330
1F
100
AcDbEntity
  8
Ebene 1
 62
   250
370
    35
100
AcDbSpline
210
0.0
220
0.0
230
1.0
 70
    11
 71
     3
 72
    68
 73
    64
 74
     0
 42
0.0000000001
 43
0.0000000001
 12
1.0
 22
0.0
 32
0.0
 13
1.0
 23
0.0
 33
0.0
 40
0.0
 40
0.0
 40
0.0
 40
0.0
 40
1.0
 40
1.0
 40
1.0
 40
2.0
 40
2.0
 40
2.0
 40
3.0
 40
3.0
 40
3.0
 40
4.0
 40
4.0
 40
4.0
 40
5.0
 40
5.0
 40
5.0
 40
6.0
 40
6.0
 40
6.0
 40
7.0
 40
7.0
 40
7.0
 40
8.0
 40
8.0
 40
8.0
 40
9.0
 40
9.0
 40
9.0
 40
10.0
 40
10.0
 40
10.0
 40
11.0
 40
11.0
 40
11.0
 40
12.0
 40
12.0
 40
12.0
 40
13.0
 40
13.0
 40
13.0
 40
14.0
 40
14.0
 40
14.0
 40
15.0
 40
15.0
 40
15.0
 40
16.0
 40
16.0
 40
16.0
 40
17.0
 40
17.0
 40
17.0
 40
18.0
 40
18.0
 40
18.0
 40
19.0
 40
19.0
 40
19.0
 40
20.0
 40
20.0
 40
20.0
 40
21.0
 40
21.0
 40
21.0
 40
21.0
 10
250.5494036079522
 20
101.4907774107546
 30
0.0
 10
250.5494036079522
 20
100.4210846602669
 30
0.0
 10
250.3547471596333
 20
99.11813524906349
 30
0.0
 10
249.9626989006981
 20
97.57991834386222
 30
0.0
 10
249.9626989006981
 20
97.57991834386222
 30
0.0
 10
246.5027666050408
 20
83.67412425418414
 30
0.0
 10
246.5027666050408
 20
83.67412425418414
 30
0.0
 10
246.5027666050408
 20
83.67412425418414
 30
0.0
 10
253.1693782633333
 20
83.67412425418414
 30
0.0
 10
253.1693782633333
 20
83.67412425418414
 30
0.0
 10
253.1693782633333
 20
83.67412425418414
 30
0.0
 10
255.5954309792173
 20
93.39378678399267
 30
0.0
 10
255.5954309792173
 20
93.39378678399267
 30
0.0
 10
255.9206215264766
 20
94.69878230625501
 30
0.0
 10
256.2599937400407
 20
95.65032978197901
 30
0.0
 10
256.6127715088184
 20
96.24906664260452
 30
0.0
 10
257.225299548747
 20
97.2925833090105
 30
0.0
 10
258.0906986933355
 20
97.81349250456991
 30
0.0
 10
259.212073386949
 20
97.81349250456991
 30
0.0
 10
259.8383950376369
 20
97.81349250456991
 30
0.0
 10
260.3334480805626
 20
97.65089723094029
 30
0.0
 10
260.7000194600995
 20
97.32394279483714
 30
0.0
 10
261.0496927845119
 20
97.02422280248364
 30
0.0
 10
261.2278102799678
 20
96.60907392418608
 30
0.0
 10
261.2278102799678
 20
96.07267775375973
 30
0.0
 10
261.2278102799678
 20
95.46014728683097
 30
0.0
 10
261.0893097279456
 20
94.61404508619461
 30
0.0
 10
260.8161186238042
 20
93.53056108772854
 30
0.0
 10
260.8161186238042
 20
93.53056108772854
 30
0.0
 10
258.3518247977847
 20
83.67412425418414
 30
0.0
 10
258.3518247977847
 20
83.67412425418414
 30
0.0
 10
258.3518247977847
 20
83.67412425418414
 30
0.0
 10
265.0401385160405
 20
83.67412425418414
 30
0.0
 10
265.0401385160405
 20
83.67412425418414
 30
0.0
 10
265.0401385160405
 20
83.67412425418414
 30
0.0
 10
267.6804684486801
 20
94.29365231659074
 30
0.0
 10
267.6804684486801
 20
94.29365231659074
 30
0.0
 10
268.0580464946028
 20
95.79398330938466
 30
0.0
 10
268.2482289897509
 20
97.05212752399395
 30
0.0
 10
268.2482289897509
 20
98.06773944252798
 30
0.0
 10
268.2482289897509
 20
99.59219801474691
 30
0.0
 10
267.6081137283038
 20
100.8382796496234
 30
0.0
 10
266.3310229275518
 20
101.8039382360985
 30
0.0
 10
265.195854623179
 20
102.663834047494
 30
0.0
 10
263.8598499350411
 20
103.0930940365427
 30
0.0
 10
262.3233616409069
 20
103.0930940365427
 30
0.0
 10
261.0844832680623
 20
103.0930940365427
 30
0.0
 10
259.9351972573895
 20
102.7799332111988
 30
0.0
 10
258.8796221575025
 20
102.1549873938092
 30
0.0
 10
258.319122298619
 20
101.8280682354829
 30
0.0
 10
257.6614387042868
 20
101.2950915824136
 30
0.0
 10
256.906952890202
 20
100.5509774347309
 30
0.0
 10
256.9831176104811
 20
101.0598240884158
 30
0.0
 10
257.0230520539068
 20
101.4976944190697
 30
0.0
 10
257.0230520539068
 20
101.8624993457156
 30
0.0
 10
257.0230520539068
 20
102.084043784508
 30
0.0
 10
257.0110223319915
 20
102.3644694188531
 30
0.0
 10
256.9831176104811
 20
102.7020777521022
 30
0.0
 10
256.9831176104811
 20
102.7020777521022
 30
0.0
 10
250.4715166040486
 20
102.7020777521022
 30
0.0
 10
250.4715166040486
 20
102.7020777521022
 30
0.0
 10
250.5235449975008
 20
102.246994418883
 30
0.0
 10
250.5494036079522
 20
101.8418265684652
 30
0.0
 10
250.5494036079522
 20
101.4907774107546
 30
0.0
  0
SPLINE
  5
61
330
1F
100
AcDbEntity
  8
Ebene 1
 62
   250
370
    35
100
AcDbSpline
210
0.0
220
0.0
230
1.0
 70
    11
 71
     3
 72
    86
 73
    82
 74
     0
 42
0.0000000001
 43
0.0000000001
 12
1.0
 22
0.0
 32
0.0
 13
1.0
 23
0.0
 33
0.0
 40
0.0
 40
0.0
 40
0.0
 40
0.0
 40
1.0
 40
1.0
 40
1.0
 40
2.0
 40
2.0
 40
2.0
 40
3.0
 40
3.0
 40
3.0
 40
4.0
 40
4.0
 40
4.0
 40
5.0
 40
5.0
 40
5.0
 40
6.0
 40
6.0
 40
6.0
 40
7.0
 40
7.0
 40
7.0
 40
8.0
 40
8.0
 40
8.0
 40
9.0
 40
9.0
 40
9.0
 40
10.0
 40
10.0
 40
10.0
 40
11.0
 40
11.0
 40
11.0
 40
12.0
 40
12.0
 40
12.0
 40
13.0
 40
13.0
 40
13.0
 40
14.0
 40
14.0
 40
14.0
 40
15.0
 40
15.0
 40
15.0
 40
16.0
 40
16.0
 40
16.0
 40
17.0
 40
17.0
 40
17.0
 40
18.0
 40
18.0
 40
18.0
 40
19.0
 40
19.0
 40
19.0
 40
20.0
 40
20.0
 40
20.0
 40
21.0
 40
21.0
 40
21.0
 40
22.0
 40
22.0
 40
22.0
 40
23.0
 40
23.0
 40
23.0
 40
24.0
 40
24.0
 40
24.0
 40
25.0
 40
25.0
 40
25.0
 40
26.0
 40
26.0
 40
26.0
 40
27.0
 40
27.0
 40
27.0
 40
27.0
 10
231.7481124209464
 20
98.24448110468559
 30
0.0
 10
231.8015229751394
 20
97.93096750157288
 30
0.0
 10
231.8276990855827
 20
97.48826667953378
 30
0.0
 10
231.8276990855827
 20
96.91362697197184
 30
0.0
 10
231.8276990855827
 20
96.91362697197184
 30
0.0
 10
226.078197565598
 20
96.91362697197184
 30
0.0
 10
226.078197565598
 20
96.91362697197184
 30
0.0
 10
225.9345111803748
 20
98.29616304781152
 30
0.0
 10
225.0729277215097
 20
98.98654914130941
 30
0.0
 10
223.4964287425755
 20
98.98654914130941
 30
0.0
 10
222.9610532006785
 20
98.98654914130941
 30
0.0
 10
222.5111204343795
 20
98.89662608804798
 30
0.0
 10
222.1476943889072
 20
98.71335803716798
 30
0.0
 10
221.677753511196
 20
98.49184887615249
 30
0.0
 10
221.4424507394213
 20
98.15282944035715
 30
0.0
 10
221.4424507394213
 20
97.69566472979817
 30
0.0
 10
221.4424507394213
 20
97.21472279762358
 30
0.0
 10
221.7366673985819
 20
96.81509614115224
 30
0.0
 10
222.3230249444194
 20
96.5036639268753
 30
0.0
 10
222.6613388332233
 20
96.32177170929354
 30
0.0
 10
223.7437965140424
 20
95.86495977650334
 30
0.0
 10
225.5697036896819
 20
95.13492146179485
 30
0.0
 10
227.3414947555908
 20
94.41663064678663
 30
0.0
 10
228.5744883352457
 20
93.71245094252953
 30
0.0
 10
229.2655799842811
 20
93.02206484903164
 30
0.0
 10
230.2563916256701
 20
92.04434126286434
 30
0.0
 10
230.7521502241333
 20
90.79307379478682
 30
0.0
 10
230.7521502241333
 20
89.26688886657247
 30
0.0
 10
230.7521502241333
 20
87.03828361280172
 30
0.0
 10
229.7933708041494
 20
85.42182059848558
 30
0.0
 10
227.8761647419502
 20
84.41827367964375
 30
0.0
 10
226.3386181145097
 20
83.61005981137411
 30
0.0
 10
224.3625334427016
 20
83.20524732170173
 30
0.0
 10
221.9512973931062
 20
83.20524732170173
 30
0.0
 10
218.6660544213642
 20
83.20524732170173
 30
0.0
 10
216.2934122596731
 20
83.89566869297651
 30
0.0
 10
214.8330534080411
 20
85.2781694910393
 30
0.0
 10
213.6338206608583
 20
86.41333779541209
 30
0.0
 10
213.0343860578527
 20
87.85302386979374
 30
0.0
 10
213.0343860578527
 20
89.60072021409519
 30
0.0
 10
213.0343860578527
 20
89.75643632123365
 30
0.0
 10
213.0471159536041
 20
89.99209187077713
 30
0.0
 10
213.0732920640475
 20
90.30352408505405
 30
0.0
 10
213.0732920640475
 20
90.30352408505405
 30
0.0
 10
218.7828591406065
 20
90.30352408505405
 30
0.0
 10
218.7828591406065
 20
90.30352408505405
 30
0.0
 10
218.7966174735888
 20
89.33959410964596
 30
0.0
 10
218.9723416119239
 20
88.65435857157222
 30
0.0
 10
219.3106555007278
 20
88.24958135967672
 30
0.0
 10
219.7802027228327
 20
87.69042859616412
 30
0.0
 10
220.5684438172746
 20
87.41000554776275
 30
0.0
 10
221.677753511196
 20
87.41000554776275
 30
0.0
 10
223.3596568016204
 20
87.41000554776275
 30
0.0
 10
224.1999028912951
 20
87.90505859068845
 30
0.0
 10
224.1999028912951
 20
88.89654050983809
 30
0.0
 10
224.1999028912951
 20
89.36714605338749
 30
0.0
 10
223.9852728967707
 20
89.75643632123365
 30
0.0
 10
223.5543195744319
 20
90.06994992434636
 30
0.0
 10
223.242887360155
 20
90.30352408505405
 30
0.0
 10
222.5569462665437
 20
90.618413521465
 30
0.0
 10
221.5013646268072
 20
91.00943240037817
 30
0.0
 10
219.6365460632716
 20
91.72567710432746
 30
0.0
 10
218.2550683207382
 20
92.36438125469942
 30
0.0
 10
217.3559138345501
 20
92.92490985151026
 30
0.0
 10
215.8038625499403
 20
93.92880954812087
 30
0.0
 10
215.0276809030757
 20
95.33544034556806
 30
0.0
 10
215.0276809030757
 20
97.14892974374654
 30
0.0
 10
215.0276809030757
 20
98.21657638317527
 30
0.0
 10
215.3029533960529
 20
99.17877774751636
 30
0.0
 10
215.8503939376421
 20
100.0335230034878
 30
0.0
 10
216.3974817014625
 20
100.8885857594511
 30
0.0
 10
217.1595169597992
 20
101.5566083079443
 30
0.0
 10
218.1382636014959
 20
102.0375123968062
 30
0.0
 10
219.6902741174564
 20
102.793726821958
 30
0.0
 10
221.5403112924802
 20
103.1726833075404
 30
0.0
 10
223.6910971662992
 20
103.1726833075404
 30
0.0
 10
226.7427603264214
 20
103.1726833075404
 30
0.0
 10
228.9913658246102
 20
102.3834109990927
 30
0.0
 10
230.4389893987894
 20
100.806955530354
 30
0.0
 10
231.1424693866589
 20
100.0490099475371
 30
0.0
 10
231.5800138141239
 20
99.19599330263271
 30
0.0
 10
231.7481124209464
 20
98.24448110468559
 30
0.0
  0
SPLINE
  5
62
330
1F
100
AcDbEntity
  8
Ebene 1
 62
   250
370
    35
100
AcDbSpline
210
0.0
220
0.0
230
1.0
 70
    11
 71
     3
 72
    32
 73
    28
 74
     0
 42
0.0000000001
 43
0.0000000001
 12
1.0
 22
0.0
 32
0.0
 13
1.0
 23
0.0
 33
0.0
 40
0.0
 40
0.0
 40
0.0
 40
0.0
 40
1.0
 40
1.0
 40
1.0
 40
2.0
 40
2.0
 40
2.0
 40
3.0
 40
3.0
 40
3.0
 40
4.0
 40
4.0
 40
4.0
 40
5.0
 40
5.0
 40
5.0
 40
6.0
 40
6.0
 40
6.0
 40
7.0
 40
7.0
 40
7.0
 40
8.0
 40
8.0
 40
8.0
 40
9.0
 40
9.0
 40
9.0
 40
9.0
 10
203.8635345212302
 20
96.81509614115224
 30
0.0
 10
203.3815342557492
 20
97.58506889928637
 30
0.0
 10
202.6442992745577
 20
97.969211086619
 30
0.0
 10
201.6534876331687
 20
97.969211086619
 30
0.0
 10
200.5731057162871
 20
97.969211086619
 30
0.0
 10
199.6332704624865
 20
97.37735334903007
 30
0.0
 10
198.8381446494385
 20
96.19050553150767
 30
0.0
 10
197.9524305060675
 20
94.83555424721011
 30
0.0
 10
197.5093719055606
 20
93.30213511966423
 30
0.0
 10
197.5093719055606
 20
91.5961371076323
 30
0.0
 10
197.5093719055606
 20
90.65630185383172
 30
0.0
 10
197.7305635665842
 20
89.90012497752467
 30
0.0
 10
198.173622172679
 20
89.32580275544645
 30
0.0
 10
198.6287055058982
 20
88.7270660697173
 30
0.0
 10
199.2753471724034
 20
88.42766357735569
 30
0.0
 10
200.1100848947664
 20
88.42766357735569
 30
0.0
 10
201.3734173625361
 20
88.42766357735569
 30
0.0
 10
202.4097020583205
 20
89.13702911481383
 30
0.0
 10
203.2179159265901
 20
90.55949963407913
 30
0.0
 10
203.5441648071557
 20
91.11865239759173
 30
0.0
 10
203.8149570224695
 20
91.79319876927151
 30
0.0
 10
204.0295870169938
 20
92.58246847135779
 30
0.0
 10
204.2459103448083
 20
93.37138539567528
 30
0.0
 10
204.3523786754254
 20
94.07764648876817
 30
0.0
 10
204.3523786754254
 20
94.70393286167916
 30
0.0
 10
204.3523786754254
 20
95.56555728414173
 30
0.0
 10
204.189430624027
 20
96.2683611551006
 30
0.0
 10
203.8635345212302
 20
96.81509614115224
 30
0.0
  0
SPLINE
  5
63
330
1F
100
AcDbEntity
  8
Ebene 1
 62
   250
370
    35
100
AcDbSpline
210
0.0
220
0.0
230
1.0
 70
    11
 71
     3
 72
    50
 73
    46
 74
     0
 42
0.0000000001
 43
0.0000000001
 12
1.0
 22
0.0
 32
0.0
 13
1.0
 23
0.0
 33
0.0
 40
0.0
 40
0.0
 40
0.0
 40
0.0
 40
1.0
 40
1.0
 40
1.0
 40
2.0
 40
2.0
 40
2.0
 40
3.0
 40
3.0
 40
3.0
 40
4.0
 40
4.0
 40
4.0
 40
5.0
 40
5.0
 40
5.0
 40
6.0
 40
6.0
 40
6.0
 40
7.0
 40
7.0
 40
7.0
 40
8.0
 40
8.0
 40
8.0
 40
9.0
 40
9.0
 40
9.0
 40
10.0
 40
10.0
 40
10.0
 40
11.0
 40
11.0
 40
11.0
 40
12.0
 40
12.0
 40
12.0
 40
13.0
 40
13.0
 40
13.0
 40
14.0
 40
14.0
 40
14.0
 40
15.0
 40
15.0
 40
15.0
 40
15.0
 10
215.0497295136243
 20
110.3677596842839
 30
0.0
 10
215.0497295136243
 20
110.3677596842839
 30
0.0
 10
209.9458465882797
 20
89.95385076064163
 30
0.0
 10
209.9458465882797
 20
89.95385076064163
 30
0.0
 10
209.5158810436934
 20
88.2061544163402
 30
0.0
 10
209.2485460505137
 20
86.97245528114782
 30
0.0
 10
209.1438063309637
 20
86.25589307720661
 30
0.0
 10
209.0270368894982
 20
85.59133031638325
 30
0.0
 10
208.9291763364393
 20
84.73143450498767
 30
0.0
 10
208.8513182828701
 20
83.67412425418414
 30
0.0
 10
208.8513182828701
 20
83.67412425418414
 30
0.0
 10
202.5144065000937
 20
83.67412425418414
 30
0.0
 10
202.5144065000937
 20
83.67412425418414
 30
0.0
 10
202.5533582826948
 20
84.21052497894749
 30
0.0
 10
202.6391487191335
 20
84.79034839237355
 30
0.0
 10
202.7679831602911
 20
85.41494143199441
 30
0.0
 10
202.1692134533448
 20
84.82823886768202
 30
0.0
 10
201.6145762452725
 20
84.39245034696923
 30
0.0
 10
201.1060823693564
 20
84.1051128542998
 30
0.0
 10
200.1300873942561
 20
83.5580250904794
 30
0.0
 10
199.0148863115961
 20
83.28310537527096
 30
0.0
 10
197.7619305061148
 20
83.28310537527096
 30
0.0
 10
195.7034721732964
 20
83.28310537527096
 30
0.0
 10
194.0078056060041
 20
83.97522220122873
 30
0.0
 10
192.6786800843574
 20
85.35602754460854
 30
0.0
 10
191.3092320637393
 20
86.77849806387385
 30
0.0
 10
190.6247020812031
 20
88.65435857157222
 30
0.0
 10
190.6247020812031
 20
90.9904882341948
 30
0.0
 10
190.6247020812031
 20
93.12747484634241
 30
0.0
 10
191.1266695683969
 20
95.16593062767039
 30
0.0
 10
192.1308916186338
 20
97.10931280031281
 30
0.0
 10
193.2385031256306
 20
99.2342344127682
 30
0.0
 10
194.7519197536868
 20
100.8314004831322
 30
0.0
 10
196.6673972048189
 20
101.9007404558511
 30
0.0
 10
198.1150207789981
 20
102.7089896018976
 30
0.0
 10
199.6012382410815
 20
103.1137694186657
 30
0.0
 10
201.1260495910692
 20
103.1137694186657
 30
0.0
 10
203.0301675980467
 20
103.1137694186657
 30
0.0
 10
204.6655395007693
 20
102.414772942737
 30
0.0
 10
206.0342819658498
 20
101.0198543672132
 30
0.0
 10
206.0342819658498
 20
101.0198543672132
 30
0.0
 10
208.3624741286749
 20
110.3677596842839
 30
0.0
 10
208.3624741286749
 20
110.3677596842839
 30
0.0
 10
208.3624741286749
 20
110.3677596842839
 30
0.0
 10
215.0497295136243
 20
110.3677596842839
 30
0.0
 10
215.0497295136243
 20
110.3677596842839
 30
0.0
  0
SPLINE
  5
64
330
1F
100
AcDbEntity
  8
Ebene 1
 62
   250
370
    35
100
AcDbSpline
210
0.0
220
0.0
230
1.0
 70
    11
 71
     3
 72
    14
 73
    10
 74
     0
 42
0.0000000001
 43
0.0000000001
 12
1.0
 22
0.0
 32
0.0
 13
1.0
 23
0.0
 33
0.0
 40
0.0
 40
0.0
 40
0.0
 40
0.0
 40
1.0
 40
1.0
 40
1.0
 40
2.0
 40
2.0
 40
2.0
 40
3.0
 40
3.0
 40
3.0
 40
3.0
 10
160.4115802787719
 20
95.52594135863262
 30
0.0
 10
160.3337211208053
 20
97.6767252359975
 30
0.0
 10
159.296058360648
 20
98.75297306558954
 30
0.0
 10
157.3009927992164
 20
98.75297306558954
 30
0.0
 10
155.4640463546344
 20
98.75297306558954
 30
0.0
 10
154.1015110902181
 20
97.6767252359975
 30
0.0
 10
153.2154432973352
 20
95.52594135863262
 30
0.0
 10
153.2154432973352
 20
95.52594135863262
 30
0.0
 10
160.4115802787719
 20
95.52594135863262
 30
0.0
 10
160.4115802787719
 20
95.52594135863262
 30
0.0
  0
SPLINE
  5
65
330
1F
100
AcDbEntity
  8
Ebene 1
 62
   250
370
    35
100
AcDbSpline
210
0.0
220
0.0
230
1.0
 70
    11
 71
     3
 72
    53
 73
    49
 74
     0
 42
0.0000000001
 43
0.0000000001
 12
1.0
 22
0.0
 32
0.0
 13
1.0
 23
0.0
 33
0.0
 40
0.0
 40
0.0
 40
0.0
 40
0.0
 40
1.0
 40
1.0
 40
1.0
 40
2.0
 40
2.0
 40
2.0
 40
3.0
 40
3.0
 40
3.0
 40
4.0
 40
4.0
 40
4.0
 40
5.0
 40
5.0
 40
5.0
 40
6.0
 40
6.0
 40
6.0
 40
7.0
 40
7.0
 40
7.0
 40
8.0
 40
8.0
 40
8.0
 40
9.0
 40
9.0
 40
9.0
 40
10.0
 40
10.0
 40
10.0
 40
11.0
 40
11.0
 40
11.0
 40
12.0
 40
12.0
 40
12.0
 40
13.0
 40
13.0
 40
13.0
 40
14.0
 40
14.0
 40
14.0
 40
15.0
 40
15.0
 40
15.0
 40
16.0
 40
16.0
 40
16.0
 40
16.0
 10
166.5121299185883
 20
95.44808228713877
 30
0.0
 10
166.5121299185883
 20
94.24884953995597
 30
0.0
 10
166.3295674232459
 20
93.0148329047717
 30
0.0
 10
165.9643718770072
 20
91.75185553261785
 30
0.0
 10
165.9643718770072
 20
91.75185553261785
 30
0.0
 10
152.6480341611798
 20
91.75185553261785
 30
0.0
 10
152.6480341611798
 20
91.75185553261785
 30
0.0
 10
152.6218580507364
 20
91.42458127867573
 30
0.0
 10
152.6087699955148
 20
91.17029906294079
 30
0.0
 10
152.6087699955148
 20
90.9904882341948
 30
0.0
 10
152.6087699955148
 20
90.02310103665269
 30
0.0
 10
152.9012580436084
 20
89.24794244531752
 30
0.0
 10
153.4879666282949
 20
88.66123773806338
 30
0.0
 10
154.0626024584244
 20
88.10074441902943
 30
0.0
 10
154.8508491049813
 20
87.82201470391819
 30
0.0
 10
155.8550663015838
 20
87.82201470391819
 30
0.0
 10
156.8190315547687
 20
87.82201470391819
 30
0.0
 10
157.5952132016334
 20
88.10074441902943
 30
0.0
 10
158.1818826311106
 20
88.66123773806338
 30
0.0
 10
158.4551090130289
 20
88.9365102310406
 30
0.0
 10
158.7417409501608
 20
89.34474466507011
 30
0.0
 10
159.0435110713504
 20
89.89493687325576
 30
0.0
 10
159.0435110713504
 20
89.89493687325576
 30
0.0
 10
165.3053166253405
 20
89.84844076333087
 30
0.0
 10
165.3053166253405
 20
89.84844076333087
 30
0.0
 10
163.2503113906931
 20
85.10248616218803
 30
0.0
 10
160.0395045281632
 20
83.20524732170173
 30
0.0
 10
155.2298029842023
 20
83.20524732170173
 30
0.0
 10
152.5829466628403
 20
83.20524732170173
 30
0.0
 10
150.463175605809
 20
83.83844813888078
 30
0.0
 10
148.8735942574737
 20
85.10350921771749
 30
0.0
 10
146.9832698612555
 20
86.60210917948501
 30
0.0
 10
146.0367318298481
 20
88.7150010700251
 30
0.0
 10
146.0367318298481
 20
91.43869238942683
 30
0.0
 10
146.0367318298481
 20
93.32831123010753
 30
0.0
 10
146.4868409850316
 20
95.14698886510233
 30
0.0
 10
147.3873805187088
 20
96.89468280578848
 30
0.0
 10
148.6255562082462
 20
99.28076580046998
 30
0.0
 10
150.3801317190388
 20
101.0077893675211
 30
0.0
 10
152.6480341611798
 20
102.0771293402399
 30
0.0
 10
154.1862863441579
 20
102.8075204327172
 30
0.0
 10
155.8995163004498
 20
103.1726833075404
 30
0.0
 10
157.7908990299744
 20
103.1726833075404
 30
0.0
 10
160.3337211873238
 20
103.1726833075404
 30
0.0
 10
162.3676966909883
 20
102.5460062727223
 30
0.0
 10
163.8931783187367
 20
101.2950915824136
 30
0.0
 10
165.6381229964416
 20
99.88641467390748
 30
0.0
 10
166.5121299185883
 20
97.93819944583282
 30
0.0
 10
166.5121299185883
 20
95.44808228713877
 30
0.0
  0
SPLINE
  5
66
330
1F
100
AcDbEntity
  8
Ebene 1
 62
   250
370
    35
100
AcDbSpline
210
0.0
220
0.0
230
1.0
 70
    11
 71
     3
 72
    26
 73
    22
 74
     0
 42
0.0000000001
 43
0.0000000001
 12
1.0
 22
0.0
 32
0.0
 13
1.0
 23
0.0
 33
0.0
 40
0.0
 40
0.0
 40
0.0
 40
0.0
 40
1.0
 40
1.0
 40
1.0
 40
2.0
 40
2.0
 40
2.0
 40
3.0
 40
3.0
 40
3.0
 40
4.0
 40
4.0
 40
4.0
 40
5.0
 40
5.0
 40
5.0
 40
6.0
 40
6.0
 40
6.0
 40
7.0
 40
7.0
 40
7.0
 40
7.0
 10
131.7835221934778
 20
98.85012997812308
 30
0.0
 10
131.7835221934778
 20
98.85012997812308
 30
0.0
 10
133.6602293678212
 20
98.85012997812308
 30
0.0
 10
133.6602293678212
 20
98.85012997812308
 30
0.0
 10
135.8111859796124
 20
98.85012997812308
 30
0.0
 10
137.285514830888
 20
99.10437691608115
 30
0.0
 10
138.0797586995141
 20
99.61149495869904
 30
0.0
 10
139.006505898093
 20
100.1999282770202
 30
0.0
 10
139.4685036640843
 20
101.137682141985
 30
0.0
 10
139.4685036640843
 20
102.4302598867864
 30
0.0
 10
139.4685036640843
 20
103.5237298588896
 30
0.0
 10
139.0185708977852
 20
104.2351415074067
 30
0.0
 10
138.1204339762542
 20
104.5603673324428
 30
0.0
 10
137.5580003794919
 20
104.768118160476
 30
0.0
 10
136.3589440211935
 20
104.8737045466711
 30
0.0
 10
134.5211482347462
 20
104.8737045466711
 30
0.0
 10
134.5211482347462
 20
104.8737045466711
 30
0.0
 10
133.3090038212262
 20
104.8737045466711
 30
0.0
 10
133.3090038212262
 20
104.8737045466711
 30
0.0
 10
133.3090038212262
 20
104.8737045466711
 30
0.0
 10
131.7835221934778
 20
98.85012997812308
 30
0.0
 10
131.7835221934778
 20
98.85012997812308
 30
0.0
  0
SPLINE
  5
67
330
1F
100
AcDbEntity
  8
Ebene 1
 62
   250
370
    35
100
AcDbSpline
210
0.0
220
0.0
230
1.0
 70
    11
 71
     3
 72
    41
 73
    37
 74
     0
 42
0.0000000001
 43
0.0000000001
 12
1.0
 22
0.0
 32
0.0
 13
1.0
 23
0.0
 33
0.0
 40
0.0
 40
0.0
 40
0.0
 40
0.0
 40
1.0
 40
1.0
 40
1.0
 40
2.0
 40
2.0
 40
2.0
 40
3.0
 40
3.0
 40
3.0
 40
4.0
 40
4.0
 40
4.0
 40
5.0
 40
5.0
 40
5.0
 40
6.0
 40
6.0
 40
6.0
 40
7.0
 40
7.0
 40
7.0
 40
8.0
 40
8.0
 40
8.0
 40
9.0
 40
9.0
 40
9.0
 40
10.0
 40
10.0
 40
10.0
 40
11.0
 40
11.0
 40
11.0
 40
12.0
 40
12.0
 40
12.0
 40
12.0
 10
127.7153595194875
 20
110.3677596842839
 30
0.0
 10
127.7153595194875
 20
110.3677596842839
 30
0.0
 10
135.3612532133134
 20
110.3677596842839
 30
0.0
 10
135.3612532133134
 20
110.3677596842839
 30
0.0
 10
138.738112571607
 20
110.3677596842839
 30
0.0
 10
141.1694922317996
 20
110.0563274700069
 30
0.0
 10
142.6567327494124
 20
109.4298294304347
 30
0.0
 10
145.2896543489077
 20
108.33445445838
 30
0.0
 10
146.6063620930934
 20
106.2424470117516
 30
0.0
 10
146.6063620930934
 20
103.1516551461598
 30
0.0
 10
146.6063620930934
 20
100.4021404940836
 30
0.0
 10
145.6228176737413
 20
98.1455999754638
 30
0.0
 10
143.6542860751975
 20
96.38756476317057
 30
0.0
 10
142.6100638532363
 20
95.46014728683097
 30
0.0
 10
141.3329694498511
 20
94.77664035982424
 30
0.0
 10
139.8214225439694
 20
94.33358676001637
 30
0.0
 10
139.8214225439694
 20
94.33358676001637
 30
0.0
 10
143.8878566068927
 20
83.67412425418414
 30
0.0
 10
143.8878566068927
 20
83.67412425418414
 30
0.0
 10
143.8878566068927
 20
83.67412425418414
 30
0.0
 10
136.2810859676243
 20
83.67412425418414
 30
0.0
 10
136.2810859676243
 20
83.67412425418414
 30
0.0
 10
136.2810859676243
 20
83.67412425418414
 30
0.0
 10
133.4068290965082
 20
93.62771372246914
 30
0.0
 10
133.4068290965082
 20
93.62771372246914
 30
0.0
 10
133.4068290965082
 20
93.62771372246914
 30
0.0
 10
130.4917558375446
 20
93.62771372246914
 30
0.0
 10
130.4917558375446
 20
93.62771372246914
 30
0.0
 10
130.4917558375446
 20
93.62771372246914
 30
0.0
 10
128.0095761786481
 20
83.67412425418414
 30
0.0
 10
128.0095761786481
 20
83.67412425418414
 30
0.0
 10
128.0095761786481
 20
83.67412425418414
 30
0.0
 10
121.0670155224342
 20
83.67412425418414
 30
0.0
 10
121.0670155224342
 20
83.67412425418414
 30
0.0
 10
121.0670155224342
 20
83.67412425418414
 30
0.0
 10
127.7153595194875
 20
110.3677596842839
 30
0.0
 10
127.7153595194875
 20
110.3677596842839
 30
0.0
  0
POLYLINE
  5
68
330
1F
100
AcDbEntity
  8
Ebene 1
 62
   250
370
    35
100
AcDb2dPolyline
 66
     1
 10
0.0
 20
0.0
 30
0.0
  0
VERTEX
  5
69
330
68
100
AcDbEntity
  8
Ebene 1
 62
   250
370
    35
100
AcDbVertex
100
AcDb2dVertex
 10
246.6860637065142
 20
110.1360905235276
 30
0.0
  0
VERTEX
  5
6A
330
68
100
AcDbEntity
  8
Ebene 1
 62
   250
370
    35
100
AcDbVertex
100
AcDb2dVertex
 10
242.1164979897602
 20
101.9510465656788
 30
0.0
  0
VERTEX
  5
6B
330
68
100
AcDbEntity
  8
Ebene 1
 62
   250
370
    35
100
AcDbVertex
100
AcDb2dVertex
 10
246.1320967762026
 20
101.9510465656788
 30
0.0
  0
VERTEX
  5
6C
330
68
100
AcDbEntity
  8
Ebene 1
 62
   250
370
    35
100
AcDbVertex
100
AcDb2dVertex
 10
253.2775399272405
 20
110.1360905235276
 30
0.0
  0
VERTEX
  5
6D
330
68
100
AcDbEntity
  8
Ebene 1
 62
   250
370
    35
100
AcDbVertex
100
AcDb2dVertex
 10
246.6860637065142
 20
110.1360905235276
 30
0.0
  0
SEQEND
  5
6E
330
68
100
AcDbEntity
  8
Ebene 1
 62
   250
370
    35
  0
SPLINE
  5
6F
330
1F
100
AcDbEntity
  8
Ebene 1
 62
   250
370
    35
100
AcDbSpline
210
0.0
220
0.0
230
1.0
 70
    11
 71
     3
 72
    53
 73
    49
 74
     0
 42
0.0000000001
 43
0.0000000001
 12
1.0
 22
0.0
 32
0.0
 13
1.0
 23
0.0
 33
0.0
 40
0.0
 40
0.0
 40
0.0
 40
0.0
 40
1.0
 40
1.0
 40
1.0
 40
2.0
 40
2.0
 40
2.0
 40
3.0
 40
3.0
 40
3.0
 40
4.0
 40
4.0
 40
4.0
 40
5.0
 40
5.0
 40
5.0
 40
6.0
 40
6.0
 40
6.0
 40
7.0
 40
7.0
 40
7.0
 40
8.0
 40
8.0
 40
8.0
 40
9.0
 40
9.0
 40
9.0
 40
10.0
 40
10.0
 40
10.0
 40
11.0
 40
11.0
 40
11.0
 40
12.0
 40
12.0
 40
12.0
 40
13.0
 40
13.0
 40
13.0
 40
14.0
 40
14.0
 40
14.0
 40
15.0
 40
15.0
 40
15.0
 40
16.0
 40
16.0
 40
16.0
 40
16.0
 10
174.9905085911757
 20
91.75185553261785
 30
0.0
 10
174.9643324807325
 20
91.42458127867573
 30
0.0
 10
174.9512444255108
 20
91.17029906294079
 30
0.0
 10
174.9512444255108
 20
90.9904882341948
 30
0.0
 10
174.9512444255108
 20
90.02310103665269
 30
0.0
 10
175.2437324736044
 20
89.24794244531752
 30
0.0
 10
175.8304416227089
 20
88.66123773806338
 30
0.0
 10
176.4050768884204
 20
88.10074441902943
 30
0.0
 10
177.1933235349773
 20
87.82201470391819
 30
0.0
 10
178.1975805110063
 20
87.82201470391819
 30
0.0
 10
179.1615059847647
 20
87.82201470391819
 30
0.0
 10
179.9376876316294
 20
88.10074441902943
 30
0.0
 10
180.5243923388835
 20
88.66123773806338
 30
0.0
 10
180.7975834430249
 20
88.9365102310406
 30
0.0
 10
181.0842153801568
 20
89.34474466507011
 30
0.0
 10
181.3859860657649
 20
89.89493687325576
 30
0.0
 10
181.3859860657649
 20
89.89493687325576
 30
0.0
 10
187.647791619755
 20
89.84844076333087
 30
0.0
 10
187.647791619755
 20
89.84844076333087
 30
0.0
 10
185.5927858206891
 20
85.10248616218803
 30
0.0
 10
182.3819789581592
 20
83.20524732170173
 30
0.0
 10
177.5722774141982
 20
83.20524732170173
 30
0.0
 10
174.9254210928363
 20
83.20524732170173
 30
0.0
 10
172.805650035805
 20
83.83844813888078
 30
0.0
 10
171.2160686874697
 20
85.10350921771749
 30
0.0
 10
169.3257442912515
 20
86.60210917948501
 30
0.0
 10
168.3790298709597
 20
88.7150010700251
 30
0.0
 10
168.3790298709597
 20
91.43869238942683
 30
0.0
 10
168.3790298709597
 20
93.32831123010753
 30
0.0
 10
168.8293154150275
 20
95.14698886510233
 30
0.0
 10
169.729855513123
 20
96.89468280578848
 30
0.0
 10
170.9680306382422
 20
99.28076580046998
 30
0.0
 10
172.7226061490348
 20
101.0077893675211
 30
0.0
 10
174.9905085911757
 20
102.0771293402399
 30
0.0
 10
176.5287607741539
 20
102.8075204327172
 30
0.0
 10
178.2419907304458
 20
103.1726833075404
 30
0.0
 10
180.1333734599703
 20
103.1726833075404
 30
0.0
 10
182.6761956173198
 20
103.1726833075404
 30
0.0
 10
184.7101711209843
 20
102.5460062727223
 30
0.0
 10
186.2356527487327
 20
101.2950915824136
 30
0.0
 10
187.9805974264376
 20
99.88641467390748
 30
0.0
 10
188.8546043485843
 20
97.93819944583282
 30
0.0
 10
188.8546043485843
 20
95.44808228713877
 30
0.0
 10
188.8546043485843
 20
94.24884953995597
 30
0.0
 10
188.6720418532419
 20
93.0148329047717
 30
0.0
 10
188.3068463070032
 20
91.75185553261785
 30
0.0
 10
188.3068463070032
 20
91.75185553261785
 30
0.0
 10
174.9905085911757
 20
91.75185553261785
 30
0.0
 10
174.9905085911757
 20
91.75185553261785
 30
0.0
  0
SPLINE
  5
70
330
1F
100
AcDbEntity
  8
Ebene 1
 62
   250
370
    35
100
AcDbSpline
210
0.0
220
0.0
230
1.0
 70
    11
 71
     3
 72
    14
 73
    10
 74
     0
 42
0.0000000001
 43
0.0000000001
 12
1.0
 22
0.0
 32
0.0
 13
1.0
 23
0.0
 33
0.0
 40
0.0
 40
0.0
 40
0.0
 40
0.0
 40
1.0
 40
1.0
 40
1.0
 40
2.0
 40
2.0
 40
2.0
 40
3.0
 40
3.0
 40
3.0
 40
3.0
 10
175.5579163544778
 20
95.525940340708
 30
0.0
 10
175.5579163544778
 20
95.525940340708
 30
0.0
 10
182.7540582876447
 20
95.525940340708
 30
0.0
 10
182.7540582876447
 20
95.525940340708
 30
0.0
 10
182.6761956173198
 20
97.67672056361481
 30
0.0
 10
181.6385350882371
 20
98.75297498060172
 30
0.0
 10
179.6434709724688
 20
98.75297498060172
 30
0.0
 10
177.8065571304435
 20
98.75297498060172
 30
0.0
 10
176.4440235540935
 20
97.67672056361481
 30
0.0
 10
175.5579163544778
 20
95.525940340708
 30
0.0
  0
ENDSEC
  0
SECTION
  2
OBJECTS
  0
DICTIONARY
  5
C
330
0
100
AcDbDictionary
281
     1
  3
ACAD_GROUP
350
D
  3
ACAD_LAYOUT
350
1A
  3
ACAD_MATERIAL
350
3B
  3
ACAD_MLEADERSTYLE
350
92
  3
ACAD_MLINESTYLE
350
17
  3
ACAD_PLOTSETTINGS
350
19
  3
ACAD_PLOTSTYLENAME
350
E
  3
ACAD_TABLESTYLE
350
91
  3
ACAD_VISUALSTYLE
350
2A
  0
SUN
  5
3F
330
29
100
AcDbSun
 90
        1
290
     0
 63
     7
421
 16777215
 40
1.0
291
     1
 91
  2455826
 92
 54000000
292
     0
 70
     2
 71
   256
280
     1
  0
DICTIONARY
  5
D
102
{ACAD_REACTORS
330
C
102
}
330
C
100
AcDbDictionary
281
     1
  0
DICTIONARY
  5
1A
102
{ACAD_REACTORS
330
C
102
}
330
C
100
AcDbDictionary
281
     1
  3
Layout1
350
1E
  3
Layout2
350
26
  3
Model
350
22
  0
DICTIONARY
  5
3B
102
{ACAD_REACTORS
330
C
102
}
330
C
100
AcDbDictionary
281
     1
  3
ByBlock
350
3D
  3
ByLayer
350
3C
  3
Global
350
3E
  0
DICTIONARY
  5
92
102
{ACAD_REACTORS
330
C
102
}
330
C
100
AcDbDictionary
281
     1
  0
DICTIONARY
  5
17
102
{ACAD_REACTORS
330
C
102
}
330
C
100
AcDbDictionary
281
     1
  3
Standard
350
18
  0
DICTIONARY
  5
19
102
{ACAD_REACTORS
330
C
102
}
330
C
100
AcDbDictionary
281
     1
  0
ACDBDICTIONARYWDFLT
  5
E
102
{ACAD_REACTORS
330
C
102
}
330
C
100
AcDbDictionary
281
     1
  3
Normal
350
F
100
AcDbDictionaryWithDefault
340
F
  0
DICTIONARY
  5
91
102
{ACAD_REACTORS
330
C
102
}
330
C
100
AcDbDictionary
281
     1
  0
DICTIONARY
  5
2A
102
{ACAD_REACTORS
330
C
102
}
330
C
100
AcDbDictionary
281
     1
  3
2dWireframe
350
2F
  3
3D Hidden
350
31
  3
3dWireframe
350
30
  3
Basic
350
32
  3
Brighten
350
36
  3
ColorChange
350
3A
  3
Conceptual
350
34
  3
Dim
350
35
  3
Facepattern
350
39
  3
Flat
350
2B
  3
FlatWithEdges
350
2C
  3
Gouraud
350
2D
  3
GouraudWithEdges
350
2E
  3
Linepattern
350
38
  3
Realistic
350
33
  3
Thicken
350
37
  0
LAYOUT
  5
1E
102
{ACAD_REACTORS
330
1A
102
}
330
1A
100
AcDbPlotSettings
  1

  2
none_device
  4

  6

 40
0.0
 41
0.0
 42
0.0
 43
0.0
 44
0.0
 45
0.0
 46
0.0
 47
0.0
 48
0.0
 49
0.0
140
0.0
141
0.0
142
1.0
143
1.0
 70
   688
 72
     0
 73
     0
 74
     5
  7

 75
    16
 76
     0
 77
     2
 78
   300
147
1.0
148
0.0
149
0.0
100
AcDbLayout
  1
Layout1
 70
     1
 71
     1
 10
0.0
 20
0.0
 11
12.0
 21
9.0
 12
0.0
 22
0.0
 32
0.0
 14
1.000000000000000E+20
 24
1.000000000000000E+20
 34
1.000000000000000E+20
 15
-1.000000000000000E+20
 25
-1.000000000000000E+20
 35
-1.000000000000000E+20
146
0.0
 13
0.0
 23
0.0
 33
0.0
 16
1.0
 26
0.0
 36
0.0
 17
0.0
 27
1.0
 37
0.0
 76
     0
330
1B
  0
LAYOUT
  5
26
102
{ACAD_REACTORS
330
1A
102
}
330
1A
100
AcDbPlotSettings
  1

  2
none_device
  4

  6

 40
0.0
 41
0.0
 42
0.0
 43
0.0
 44
0.0
 45
0.0
 46
0.0
 47
0.0
 48
0.0
 49
0.0
140
0.0
141
0.0
142
1.0
143
1.0
 70
   688
 72
     0
 73
     0
 74
     5
  7

 75
    16
 76
     0
 77
     2
 78
   300
147
1.0
148
0.0
149
0.0
100
AcDbLayout
  1
Layout2
 70
     1
 71
     2
 10
0.0
 20
0.0
 11
0.0
 21
0.0
 12
0.0
 22
0.0
 32
0.0
 14
0.0
 24
0.0
 34
0.0
 15
0.0
 25
0.0
 35
0.0
146
0.0
 13
0.0
 23
0.0
 33
0.0
 16
1.0
 26
0.0
 36
0.0
 17
0.0
 27
1.0
 37
0.0
 76
     0
330
23
  0
LAYOUT
  5
22
102
{ACAD_REACTORS
330
1A
102
}
330
1A
100
AcDbPlotSettings
  1

  2
none_device
  4

  6

 40
0.0
 41
0.0
 42
0.0
 43
0.0
 44
0.0
 45
0.0
 46
0.0
 47
0.0
 48
0.0
 49
0.0
140
0.0
141
0.0
142
1.0
143
1.0
 70
  1712
 72
     0
 73
     0
 74
     0
  7

 75
     0
 76
     0
 77
     2
 78
   300
147
1.0
148
0.0
149
0.0
100
AcDbLayout
  1
Model
 70
     1
 71
     0
 10
0.0
 20
0.0
 11
12.0
 21
9.0
 12
0.0
 22
0.0
 32
0.0
 14
1.000000000000000E+20
 24
1.000000000000000E+20
 34
1.000000000000000E+20
 15
-1.000000000000000E+20
 25
-1.000000000000000E+20
 35
-1.000000000000000E+20
146
0.0
 13
0.0
 23
0.0
 33
0.0
 16
1.0
 26
0.0
 36
0.0
 17
0.0
 27
1.0
 37
0.0
 76
     0
330
1F
331
29
  0
MATERIAL
  5
3D
102
{ACAD_REACTORS
330
3B
102
}
330
3B
100
AcDbMaterial
  1
ByBlock
 72
     1
 94
      127
  0
MATERIAL
  5
3C
102
{ACAD_REACTORS
330
3B
102
}
330
3B
100
AcDbMaterial
  1
ByLayer
 72
     1
 94
      127
  0
MATERIAL
  5
3E
102
{ACAD_REACTORS
330
3B
102
}
330
3B
100
AcDbMaterial
  1
Global
 72
     1
 94
      127
  0
MLINESTYLE
  5
18
102
{ACAD_REACTORS
330
17
102
}
330
17
100
AcDbMlineStyle
  2
Standard
 70
     0
  3

 62
   256
 51
90.0
 52
90.0
 71
     2
 49
0.5
 62
   256
  6
BYLAYER
 49
-0.5
 62
   256
  6
BYLAYER
  0
ACDBPLACEHOLDER
  5
F
102
{ACAD_REACTORS
330
E
102
}
330
E
  0
VISUALSTYLE
  5
2F
102
{ACAD_REACTORS
330
2A
102
}
102
{ACAD_XDICTIONARY
360
79
102
}
330
2A
100
AcDbVisualStyle
  2
2dWireframe
 70
     4
 71
     0
 72
     2
 73
     0
 90
        0
 40
-0.6
 41
-30.0
 62
     5
 63
     7
421
 16777215
 74
     1
 91
        4
 64
     7
 65
   257
 75
     1
175
     1
 42
1.0
 92
        0
 66
   257
 43
1.0
 76
     1
 77
     6
 78
     2
 67
     7
 79
     5
170
     0
171
     0
290
     0
174
     0
 93
        1
 44
0.0
173
     0
291
     0
 45
0.0
  0
VISUALSTYLE
  5
31
102
{ACAD_REACTORS
330
2A
102
}
102
{ACAD_XDICTIONARY
360
7D
102
}
330
2A
100
AcDbVisualStyle
  2
3D Hidden
 70
     6
 71
     1
 72
     2
 73
     2
 90
        0
 40
-0.6
 41
-30.0
 62
     5
 63
     7
421
 16777215
 74
     2
 91
        2
 64
     7
 65
   257
 75
     2
175
     1
 42
40.0
 92
        0
 66
   257
 43
1.0
 76
     1
 77
     6
 78
     2
 67
     7
 79
     3
170
     0
171
     0
290
     0
174
     0
 93
        1
 44
0.0
173
     0
291
     0
 45
0.0
  0
VISUALSTYLE
  5
30
102
{ACAD_REACTORS
330
2A
102
}
102
{ACAD_XDICTIONARY
360
7B
102
}
330
2A
100
AcDbVisualStyle
  2
3dWireframe
 70
     5
 71
     0
 72
     2
 73
     0
 90
        0
 40
-0.6
 41
-30.0
 62
     5
 63
     7
421
 16777215
 74
     1
 91
        4
 64
     7
 65
   257
 75
     1
175
     1
 42
1.0
 92
        0
 66
   257
 43
1.0
 76
     1
 77
     6
 78
     2
 67
     7
 79
     5
170
     0
171
     0
290
     0
174
     0
 93
        1
 44
0.0
173
     0
291
     0
 45
0.0
  0
VISUALSTYLE
  5
32
102
{ACAD_REACTORS
330
2A
102
}
102
{ACAD_XDICTIONARY
360
7F
102
}
330
2A
100
AcDbVisualStyle
  2
Basic
 70
     7
 71
     1
 72
     0
 73
     1
 90
        0
 40
-0.6
 41
-30.0
 62
     5
 63
     7
421
 16777215
 74
     0
 91
        4
 64
     7
 65
   257
 75
     1
175
     1
 42
1.0
 92
        8
 66
     7
 43
1.0
 76
     1
 77
     6
 78
     2
 67
     7
 79
     5
170
     0
171
     0
290
     0
174
     0
 93
        1
 44
0.0
173
     0
291
     1
 45
0.0
  0
VISUALSTYLE
  5
36
102
{ACAD_REACTORS
330
2A
102
}
102
{ACAD_XDICTIONARY
360
87
102
}
330
2A
100
AcDbVisualStyle
  2
Brighten
 70
    12
 71
     2
 72
     2
 73
     0
 90
        0
 40
-0.6
 41
-30.0
 62
     5
 63
     7
421
 16777215
 74
     1
 91
        4
 64
     7
 65
   257
 75
     1
175
     1
 42
1.0
 92
        8
 66
     7
 43
1.0
 76
     1
 77
     6
 78
     2
 67
     7
 79
     5
170
     0
171
     0
290
     0
174
     0
 93
        1
 44
50.0
173
     0
291
     1
 45
0.0
  0
VISUALSTYLE
  5
3A
102
{ACAD_REACTORS
330
2A
102
}
102
{ACAD_XDICTIONARY
360
8F
102
}
330
2A
100
AcDbVisualStyle
  2
ColorChange
 70
    16
 71
     2
 72
     2
 73
     3
 90
        0
 40
-0.6
 41
-30.0
 62
     5
 63
     8
421
  8421504
 74
     1
 91
        4
 64
     7
 65
   257
 75
     1
175
     1
 42
1.0
 92
        8
 66
     8
424
  8421504
 43
1.0
 76
     1
 77
     6
 78
     2
 67
     7
 79
     5
170
     0
171
     0
290
     0
174
     0
 93
        1
 44
0.0
173
     0
291
     1
 45
0.0
  0
VISUALSTYLE
  5
34
102
{ACAD_REACTORS
330
2A
102
}
102
{ACAD_XDICTIONARY
360
83
102
}
330
2A
100
AcDbVisualStyle
  2
Conceptual
 70
     9
 71
     3
 72
     2
 73
     0
 90
        0
 40
-0.6
 41
-30.0
 62
     5
 63
     7
421
 16777215
 74
     2
 91
        2
 64
     7
 65
   257
 75
     1
175
     1
 42
40.0
 92
        8
 66
     7
 43
1.0
 76
     1
 77
     6
 78
     2
 67
     7
 79
     3
170
     0
171
     0
290
     0
174
     0
 93
        1
 44
0.0
173
     0
291
     0
 45
0.0
  0
VISUALSTYLE
  5
35
102
{ACAD_REACTORS
330
2A
102
}
102
{ACAD_XDICTIONARY
360
85
102
}
330
2A
100
AcDbVisualStyle
  2
Dim
 70
    11
 71
     2
 72
     2
 73
     0
 90
        0
 40
-0.6
 41
-30.0
 62
     5
 63
     7
421
 16777215
 74
     1
 91
        4
 64
     7
 65
   257
 75
     1
175
     1
 42
1.0
 92
        8
 66
     7
 43
1.0
 76
     1
 77
     6
 78
     2
 67
     7
 79
     5
170
     0
171
     0
290
     0
174
     0
 93
        1
 44
-50.0
173
     0
291
     1
 45
0.0
  0
VISUALSTYLE
  5
39
102
{ACAD_REACTORS
330
2A
102
}
102
{ACAD_XDICTIONARY
360
8D
102
}
330
2A
100
AcDbVisualStyle
  2
Facepattern
 70
    15
 71
     2
 72
     2
 73
     0
 90
        0
 40
-0.6
 41
-30.0
 62
     5
 63
     7
421
 16777215
 74
     1
 91
        4
 64
     7
 65
   257
 75
     1
175
     1
 42
1.0
 92
        8
 66
     7
 43
1.0
 76
     1
 77
     6
 78
     2
 67
     7
 79
     5
170
     0
171
     0
290
     0
174
     0
 93
        1
 44
0.0
173
     0
291
     1
 45
0.0
  0
VISUALSTYLE
  5
2B
102
{ACAD_REACTORS
330
2A
102
}
102
{ACAD_XDICTIONARY
360
71
102
}
330
2A
100
AcDbVisualStyle
  2
Flat
 70
     0
 71
     2
 72
     1
 73
     1
 90
        2
 40
-0.6
 41
30.0
 62
     5
 63
     7
421
 16777215
 74
     0
 91
        4
 64
     7
 65
   257
 75
     1
175
     1
 42
1.0
 92
        8
 66
     7
 43
1.0
 76
     1
 77
     6
 78
     2
 67
     7
 79
     5
170
     0
171
     0
290
     0
174
     0
 93
       13
 44
0.0
173
     0
291
     1
 45
0.0
  0
VISUALSTYLE
  5
2C
102
{ACAD_REACTORS
330
2A
102
}
102
{ACAD_XDICTIONARY
360
73
102
}
330
2A
100
AcDbVisualStyle
  2
FlatWithEdges
 70
     1
 71
     2
 72
     1
 73
     1
 90
        2
 40
-0.6
 41
30.0
 62
     5
 63
     7
421
 16777215
 74
     1
 91
        4
 64
     7
 65
   257
 75
     1
175
     1
 42
1.0
 92
        0
 66
   257
 43
1.0
 76
     1
 77
     6
 78
     2
 67
     7
 79
     5
170
     0
171
     0
290
     0
174
     0
 93
       13
 44
0.0
173
     0
291
     1
 45
0.0
  0
VISUALSTYLE
  5
2D
102
{ACAD_REACTORS
330
2A
102
}
102
{ACAD_XDICTIONARY
360
75
102
}
330
2A
100
AcDbVisualStyle
  2
Gouraud
 70
     2
 71
     2
 72
     2
 73
     1
 90
        2
 40
-0.6
 41
30.0
 62
     5
 63
     7
421
 16777215
 74
     0
 91
        4
 64
     7
 65
   257
 75
     1
175
     1
 42
1.0
 92
        0
 66
     7
 43
1.0
 76
     1
 77
     6
 78
     2
 67
     7
 79
     5
170
     0
171
     0
290
     0
174
     0
 93
       13
 44
0.0
173
     0
291
     1
 45
0.0
  0
VISUALSTYLE
  5
2E
102
{ACAD_REACTORS
330
2A
102
}
102
{ACAD_XDICTIONARY
360
77
102
}
330
2A
100
AcDbVisualStyle
  2
GouraudWithEdges
 70
     3
 71
     2
 72
     2
 73
     1
 90
        2
 40
-0.6
 41
30.0
 62
     5
 63
     7
421
 16777215
 74
     1
 91
        4
 64
     7
 65
   257
 75
     1
175
     1
 42
1.0
 92
        0
 66
   257
 43
1.0
 76
     1
 77
     6
 78
     2
 67
     7
 79
     5
170
     0
171
     0
290
     0
174
     0
 93
       13
 44
0.0
173
     0
291
     1
 45
0.0
  0
VISUALSTYLE
  5
38
102
{ACAD_REACTORS
330
2A
102
}
102
{ACAD_XDICTIONARY
360
8B
102
}
330
2A
100
AcDbVisualStyle
  2
Linepattern
 70
    14
 71
     2
 72
     2
 73
     0
 90
        0
 40
-0.6
 41
-30.0
 62
     5
 63
     7
421
 16777215
 74
     1
 91
        4
 64
     7
 65
   257
 75
     7
175
     7
 42
1.0
 92
        8
 66
     7
 43
1.0
 76
     1
 77
     6
 78
     2
 67
     7
 79
     5
170
     0
171
     0
290
     0
174
     0
 93
        1
 44
0.0
173
     0
291
     1
 45
0.0
  0
VISUALSTYLE
  5
33
102
{ACAD_REACTORS
330
2A
102
}
102
{ACAD_XDICTIONARY
360
81
102
}
330
2A
100
AcDbVisualStyle
  2
Realistic
 70
     8
 71
     2
 72
     2
 73
     0
 90
        0
 40
-0.6
 41
-30.0
 62
     5
 63
     7
421
 16777215
 74
     1
 91
        0
 64
     7
 65
   257
 75
     1
175
     1
 42
1.0
 92
        8
 66
     8
424
  7895160
 43
1.0
 76
     1
 77
     6
 78
     2
 67
     7
 79
     5
170
     0
171
     0
290
     0
174
     0
 93
       13
 44
0.0
173
     0
291
     0
 45
0.0
  0
VISUALSTYLE
  5
37
102
{ACAD_REACTORS
330
2A
102
}
102
{ACAD_XDICTIONARY
360
89
102
}
330
2A
100
AcDbVisualStyle
  2
Thicken
 70
    13
 71
     2
 72
     2
 73
     0
 90
        0
 40
-0.6
 41
-30.0
 62
     5
 63
     7
421
 16777215
 74
     1
 91
        4
 64
     7
 65
   257
 75
     1
175
     1
 42
1.0
 92
       12
 66
     7
 43
1.0
 76
     1
 77
     6
 78
     2
 67
     7
 79
     5
170
     0
171
     0
290
     0
174
     0
 93
        1
 44
0.0
173
     0
291
     1
 45
0.0
  0
DICTIONARY
  5
79
330
2F
100
AcDbDictionary
280
     1
281
     1
  3
ACAD_XREC_ROUNDTRIP
360
7A
  0
DICTIONARY
  5
7D
330
31
100
AcDbDictionary
280
     1
281
     1
  3
ACAD_XREC_ROUNDTRIP
360
7E
  0
DICTIONARY
  5
7B
330
30
100
AcDbDictionary
280
     1
281
     1
  3
ACAD_XREC_ROUNDTRIP
360
7C
  0
DICTIONARY
  5
7F
330
32
100
AcDbDictionary
280
     1
281
     1
  3
ACAD_XREC_ROUNDTRIP
360
80
  0
DICTIONARY
  5
87
330
36
100
AcDbDictionary
280
     1
281
     1
  3
ACAD_XREC_ROUNDTRIP
360
88
  0
DICTIONARY
  5
8F
330
3A
100
AcDbDictionary
280
     1
281
     1
  3
ACAD_XREC_ROUNDTRIP
360
90
  0
DICTIONARY
  5
83
330
34
100
AcDbDictionary
280
     1
281
     1
  3
ACAD_XREC_ROUNDTRIP
360
84
  0
DICTIONARY
  5
85
330
35
100
AcDbDictionary
280
     1
281
     1
  3
ACAD_XREC_ROUNDTRIP
360
86
  0
DICTIONARY
  5
8D
330
39
100
AcDbDictionary
280
     1
281
     1
  3
ACAD_XREC_ROUNDTRIP
360
8E
  0
DICTIONARY
  5
71
330
2B
100
AcDbDictionary
280
     1
281
     1
  3
ACAD_XREC_ROUNDTRIP
360
72
  0
DICTIONARY
  5
73
330
2C
100
AcDbDictionary
280
     1
281
     1
  3
ACAD_XREC_ROUNDTRIP
360
74
  0
DICTIONARY
  5
75
330
2D
100
AcDbDictionary
280
     1
281
     1
  3
ACAD_XREC_ROUNDTRIP
360
76
  0
DICTIONARY
  5
77
330
2E
100
AcDbDictionary
280
     1
281
     1
  3
ACAD_XREC_ROUNDTRIP
360
78
  0
DICTIONARY
  5
8B
330
38
100
AcDbDictionary
280
     1
281
     1
  3
ACAD_XREC_ROUNDTRIP
360
8C
  0
DICTIONARY
  5
81
330
33
100
AcDbDictionary
280
     1
281
     1
  3
ACAD_XREC_ROUNDTRIP
360
82
  0
DICTIONARY
  5
89
330
37
100
AcDbDictionary
280
     1
281
     1
  3
ACAD_XREC_ROUNDTRIP
360
8A
  0
XRECORD
  5
7A
102
{ACAD_REACTORS
330
79
102
}
330
79
100
AcDbXrecord
280
     1
102
RTVSPropertyOp0
 70
     1
102
RTVSPropertyOp1
 70
     1
102
RTVSPropertyOp2
 70
     1
102
RTVSPropertyOp3
 70
     1
102
RTVSPropertyOp4
 70
     1
102
RTVSPropertyOp5
 70
     1
102
RTVSPropertyOp6
 70
     1
102
RTVSPropertyOp7
 70
     1
102
RTVSPropertyOp8
 70
     1
102
RTVSPropertyOp9
 70
     1
102
RTVSPropertyOp10
 70
     1
102
RTVSPropertyOp11
 70
     1
102
RTVSPropertyOp12
 70
     1
102
RTVSPropertyOp13
 70
     1
102
RTVSPropertyOp14
 70
     1
102
RTVSPropertyOp15
 70
     1
102
RTVSPropertyOp16
 70
     1
102
RTVSPropertyOp17
 70
     1
102
RTVSPropertyOp18
 70
     1
102
RTVSPropertyOp19
 70
     1
102
RTVSPropertyOp20
 70
     1
102
RTVSPropertyOp21
 70
     1
102
RTVSPropertyOp22
 70
     1
102
RTVSPropertyOp23
 70
     1
102
RTVSPropertyOp24
 70
     1
102
RTVSPropertyOp25
 70
     1
102
RTVSPropertyOp26
 70
     1
102
RTVSPropertyOp27
 70
     1
102
RTVSPropertyOp28
 70
     1
102
RTVSPropertyOp29
 70
     1
102
RTVSPropertyOp30
 70
     1
102
RTVSPropertyOp31
 70
     1
102
RTVSPropertyOp32
 70
     1
  0
XRECORD
  5
7E
102
{ACAD_REACTORS
330
7D
102
}
330
7D
100
AcDbXrecord
280
     1
102
RTVSPropertyOp0
 70
     1
102
RTVSPropertyOp1
 70
     1
102
RTVSPropertyOp2
 70
     1
102
RTVSPropertyOp3
 70
     1
102
RTVSPropertyOp4
 70
     1
102
RTVSPropertyOp5
 70
     1
102
RTVSPropertyOp6
 70
     1
102
RTVSPropertyOp7
 70
     1
102
RTVSPropertyOp8
 70
     1
102
RTVSPropertyOp9
 70
     1
102
RTVSPropertyOp10
 70
     1
102
RTVSPropertyOp11
 70
     1
102
RTVSPropertyOp12
 70
     1
102
RTVSPropertyOp13
 70
     1
102
RTVSPropertyOp14
 70
     1
102
RTVSPropertyOp15
 70
     1
102
RTVSPropertyOp16
 70
     1
102
RTVSPropertyOp17
 70
     1
102
RTVSPropertyOp18
 70
     1
102
RTVSPropertyOp19
 70
     1
102
RTVSPropertyOp20
 70
     1
102
RTVSPropertyOp21
 70
     1
102
RTVSPropertyOp22
 70
     1
102
RTVSPropertyOp23
 70
     1
102
RTVSPropertyOp24
 70
     1
102
RTVSPropertyOp25
 70
     1
102
RTVSPropertyOp26
 70
     1
102
RTVSPropertyOp27
 70
     1
102
RTVSPropertyOp28
 70
     1
102
RTVSPropertyOp29
 70
     1
102
RTVSPropertyOp30
 70
     1
102
RTVSPropertyOp31
 70
     1
102
RTVSPropertyOp32
 70
     1
  0
XRECORD
  5
7C
102
{ACAD_REACTORS
330
7B
102
}
330
7B
100
AcDbXrecord
280
     1
102
RTVSPropertyOp0
 70
     1
102
RTVSPropertyOp1
 70
     1
102
RTVSPropertyOp2
 70
     1
102
RTVSPropertyOp3
 70
     1
102
RTVSPropertyOp4
 70
     1
102
RTVSPropertyOp5
 70
     1
102
RTVSPropertyOp6
 70
     1
102
RTVSPropertyOp7
 70
     1
102
RTVSPropertyOp8
 70
     1
102
RTVSPropertyOp9
 70
     1
102
RTVSPropertyOp10
 70
     1
102
RTVSPropertyOp11
 70
     1
102
RTVSPropertyOp12
 70
     1
102
RTVSPropertyOp13
 70
     1
102
RTVSPropertyOp14
 70
     1
102
RTVSPropertyOp15
 70
     1
102
RTVSPropertyOp16
 70
     1
102
RTVSPropertyOp17
 70
     1
102
RTVSPropertyOp18
 70
     1
102
RTVSPropertyOp19
 70
     1
102
RTVSPropertyOp20
 70
     1
102
RTVSPropertyOp21
 70
     1
102
RTVSPropertyOp22
 70
     1
102
RTVSPropertyOp23
 70
     1
102
RTVSPropertyOp24
 70
     1
102
RTVSPropertyOp25
 70
     1
102
RTVSPropertyOp26
 70
     1
102
RTVSPropertyOp27
 70
     1
102
RTVSPropertyOp28
 70
     1
102
RTVSPropertyOp29
 70
     1
102
RTVSPropertyOp30
 70
     1
102
RTVSPropertyOp31
 70
     1
102
RTVSPropertyOp32
 70
     1
  0
XRECORD
  5
80
102
{ACAD_REACTORS
330
7F
102
}
330
7F
100
AcDbXrecord
280
     1
102
RTVSPropertyOp0
 70
     1
102
RTVSPropertyOp1
 70
     1
102
RTVSPropertyOp2
 70
     1
102
RTVSPropertyOp3
 70
     1
102
RTVSPropertyOp4
 70
     1
102
RTVSPropertyOp5
 70
     1
102
RTVSPropertyOp6
 70
     1
102
RTVSPropertyOp7
 70
     1
102
RTVSPropertyOp8
 70
     1
102
RTVSPropertyOp9
 70
     1
102
RTVSPropertyOp10
 70
     1
102
RTVSPropertyOp11
 70
     1
102
RTVSPropertyOp12
 70
     1
102
RTVSPropertyOp13
 70
     1
102
RTVSPropertyOp14
 70
     1
102
RTVSPropertyOp15
 70
     1
102
RTVSPropertyOp16
 70
     1
102
RTVSPropertyOp17
 70
     1
102
RTVSPropertyOp18
 70
     1
102
RTVSPropertyOp19
 70
     1
102
RTVSPropertyOp20
 70
     1
102
RTVSPropertyOp21
 70
     1
102
RTVSPropertyOp22
 70
     1
102
RTVSPropertyOp23
 70
     1
102
RTVSPropertyOp24
 70
     1
102
RTVSPropertyOp25
 70
     1
102
RTVSPropertyOp26
 70
     1
102
RTVSPropertyOp27
 70
     1
102
RTVSPropertyOp28
 70
     1
102
RTVSPropertyOp29
 70
     1
102
RTVSPropertyOp30
 70
     1
102
RTVSPropertyOp31
 70
     1
102
RTVSPropertyOp32
 70
     1
  0
XRECORD
  5
88
102
{ACAD_REACTORS
330
87
102
}
330
87
100
AcDbXrecord
280
     1
102
RTVSPropertyOp0
 70
     1
102
RTVSPropertyOp1
 70
     1
102
RTVSPropertyOp2
 70
     1
102
RTVSPropertyOp3
 70
     1
102
RTVSPropertyOp4
 70
     1
102
RTVSPropertyOp5
 70
     1
102
RTVSPropertyOp6
 70
     1
102
RTVSPropertyOp7
 70
     1
102
RTVSPropertyOp8
 70
     1
102
RTVSPropertyOp9
 70
     1
102
RTVSPropertyOp10
 70
     1
102
RTVSPropertyOp11
 70
     1
102
RTVSPropertyOp12
 70
     1
102
RTVSPropertyOp13
 70
     1
102
RTVSPropertyOp14
 70
     1
102
RTVSPropertyOp15
 70
     1
102
RTVSPropertyOp16
 70
     1
102
RTVSPropertyOp17
 70
     1
102
RTVSPropertyOp18
 70
     1
102
RTVSPropertyOp19
 70
     1
102
RTVSPropertyOp20
 70
     1
102
RTVSPropertyOp21
 70
     1
102
RTVSPropertyOp22
 70
     1
102
RTVSPropertyOp23
 70
     1
102
RTVSPropertyOp24
 70
     1
102
RTVSPropertyOp25
 70
     1
102
RTVSPropertyOp26
 70
     1
102
RTVSPropertyOp27
 70
     1
102
RTVSPropertyOp28
 70
     1
102
RTVSPropertyOp29
 70
     1
102
RTVSPropertyOp30
 70
     1
102
RTVSPropertyOp31
 70
     1
102
RTVSPropertyOp32
 70
     1
  0
XRECORD
  5
90
102
{ACAD_REACTORS
330
8F
102
}
330
8F
100
AcDbXrecord
280
     1
102
RTVSPropertyOp0
 70
     1
102
RTVSPropertyOp1
 70
     1
102
RTVSPropertyOp2
 70
     1
102
RTVSPropertyOp3
 70
     1
102
RTVSPropertyOp4
 70
     1
102
RTVSPropertyOp5
 70
     1
102
RTVSPropertyOp6
 70
     1
102
RTVSPropertyOp7
 70
     1
102
RTVSPropertyOp8
 70
     1
102
RTVSPropertyOp9
 70
     1
102
RTVSPropertyOp10
 70
     1
102
RTVSPropertyOp11
 70
     1
102
RTVSPropertyOp12
 70
     1
102
RTVSPropertyOp13
 70
     1
102
RTVSPropertyOp14
 70
     1
102
RTVSPropertyOp15
 70
     1
102
RTVSPropertyOp16
 70
     1
102
RTVSPropertyOp17
 70
     1
102
RTVSPropertyOp18
 70
     1
102
RTVSPropertyOp19
 70
     1
102
RTVSPropertyOp20
 70
     1
102
RTVSPropertyOp21
 70
     1
102
RTVSPropertyOp22
 70
     1
102
RTVSPropertyOp23
 70
     1
102
RTVSPropertyOp24
 70
     1
102
RTVSPropertyOp25
 70
     1
102
RTVSPropertyOp26
 70
     1
102
RTVSPropertyOp27
 70
     1
102
RTVSPropertyOp28
 70
     1
102
RTVSPropertyOp29
 70
     1
102
RTVSPropertyOp30
 70
     1
102
RTVSPropertyOp31
 70
     1
102
RTVSPropertyOp32
 70
     1
  0
XRECORD
  5
84
102
{ACAD_REACTORS
330
83
102
}
330
83
100
AcDbXrecord
280
     1
102
RTVSPropertyOp0
 70
     1
102
RTVSPropertyOp1
 70
     1
102
RTVSPropertyOp2
 70
     1
102
RTVSPropertyOp3
 70
     1
102
RTVSPropertyOp4
 70
     1
102
RTVSPropertyOp5
 70
     1
102
RTVSPropertyOp6
 70
     1
102
RTVSPropertyOp7
 70
     1
102
RTVSPropertyOp8
 70
     1
102
RTVSPropertyOp9
 70
     1
102
RTVSPropertyOp10
 70
     1
102
RTVSPropertyOp11
 70
     1
102
RTVSPropertyOp12
 70
     1
102
RTVSPropertyOp13
 70
     1
102
RTVSPropertyOp14
 70
     1
102
RTVSPropertyOp15
 70
     1
102
RTVSPropertyOp16
 70
     1
102
RTVSPropertyOp17
 70
     1
102
RTVSPropertyOp18
 70
     1
102
RTVSPropertyOp19
 70
     1
102
RTVSPropertyOp20
 70
     1
102
RTVSPropertyOp21
 70
     1
102
RTVSPropertyOp22
 70
     1
102
RTVSPropertyOp23
 70
     1
102
RTVSPropertyOp24
 70
     1
102
RTVSPropertyOp25
 70
     1
102
RTVSPropertyOp26
 70
     1
102
RTVSPropertyOp27
 70
     1
102
RTVSPropertyOp28
 70
     1
102
RTVSPropertyOp29
 70
     1
102
RTVSPropertyOp30
 70
     1
102
RTVSPropertyOp31
 70
     1
102
RTVSPropertyOp32
 70
     1
  0
XRECORD
  5
86
102
{ACAD_REACTORS
330
85
102
}
330
85
100
AcDbXrecord
280
     1
102
RTVSPropertyOp0
 70
     1
102
RTVSPropertyOp1
 70
     1
102
RTVSPropertyOp2
 70
     1
102
RTVSPropertyOp3
 70
     1
102
RTVSPropertyOp4
 70
     1
102
RTVSPropertyOp5
 70
     1
102
RTVSPropertyOp6
 70
     1
102
RTVSPropertyOp7
 70
     1
102
RTVSPropertyOp8
 70
     1
102
RTVSPropertyOp9
 70
     1
102
RTVSPropertyOp10
 70
     1
102
RTVSPropertyOp11
 70
     1
102
RTVSPropertyOp12
 70
     1
102
RTVSPropertyOp13
 70
     1
102
RTVSPropertyOp14
 70
     1
102
RTVSPropertyOp15
 70
     1
102
RTVSPropertyOp16
 70
     1
102
RTVSPropertyOp17
 70
     1
102
RTVSPropertyOp18
 70
     1
102
RTVSPropertyOp19
 70
     1
102
RTVSPropertyOp20
 70
     1
102
RTVSPropertyOp21
 70
     1
102
RTVSPropertyOp22
 70
     1
102
RTVSPropertyOp23
 70
     1
102
RTVSPropertyOp24
 70
     1
102
RTVSPropertyOp25
 70
     1
102
RTVSPropertyOp26
 70
     1
102
RTVSPropertyOp27
 70
     1
102
RTVSPropertyOp28
 70
     1
102
RTVSPropertyOp29
 70
     1
102
RTVSPropertyOp30
 70
     1
102
RTVSPropertyOp31
 70
     1
102
RTVSPropertyOp32
 70
     1
  0
XRECORD
  5
8E
102
{ACAD_REACTORS
330
8D
102
}
330
8D
100
AcDbXrecord
280
     1
102
RTVSPropertyOp0
 70
     1
102
RTVSPropertyOp1
 70
     1
102
RTVSPropertyOp2
 70
     1
102
RTVSPropertyOp3
 70
     1
102
RTVSPropertyOp4
 70
     1
102
RTVSPropertyOp5
 70
     1
102
RTVSPropertyOp6
 70
     1
102
RTVSPropertyOp7
 70
     1
102
RTVSPropertyOp8
 70
     1
102
RTVSPropertyOp9
 70
     1
102
RTVSPropertyOp10
 70
     1
102
RTVSPropertyOp11
 70
     1
102
RTVSPropertyOp12
 70
     1
102
RTVSPropertyOp13
 70
     1
102
RTVSPropertyOp14
 70
     1
102
RTVSPropertyOp15
 70
     1
102
RTVSPropertyOp16
 70
     1
102
RTVSPropertyOp17
 70
     1
102
RTVSPropertyOp18
 70
     1
102
RTVSPropertyOp19
 70
     1
102
RTVSPropertyOp20
 70
     1
102
RTVSPropertyOp21
 70
     1
102
RTVSPropertyOp22
 70
     1
102
RTVSPropertyOp23
 70
     1
102
RTVSPropertyOp24
 70
     1
102
RTVSPropertyOp25
 70
     1
102
RTVSPropertyOp26
 70
     1
102
RTVSPropertyOp27
 70
     1
102
RTVSPropertyOp28
 70
     1
102
RTVSPropertyOp29
 70
     1
102
RTVSPropertyOp30
 70
     1
102
RTVSPropertyOp31
 70
     1
102
RTVSPropertyOp32
 70
     1
  0
XRECORD
  5
72
102
{ACAD_REACTORS
330
71
102
}
330
71
100
AcDbXrecord
280
     1
102
RTVSPropertyOp0
 70
     1
102
RTVSPropertyOp1
 70
     1
102
RTVSPropertyOp2
 70
     1
102
RTVSPropertyOp3
 70
     1
102
RTVSPropertyOp4
 70
     1
102
RTVSPropertyOp5
 70
     1
102
RTVSPropertyOp6
 70
     1
102
RTVSPropertyOp7
 70
     1
102
RTVSPropertyOp8
 70
     1
102
RTVSPropertyOp9
 70
     1
102
RTVSPropertyOp10
 70
     1
102
RTVSPropertyOp11
 70
     1
102
RTVSPropertyOp12
 70
     1
102
RTVSPropertyOp13
 70
     1
102
RTVSPropertyOp14
 70
     1
102
RTVSPropertyOp15
 70
     1
102
RTVSPropertyOp16
 70
     1
102
RTVSPropertyOp17
 70
     1
102
RTVSPropertyOp18
 70
     1
102
RTVSPropertyOp19
 70
     1
102
RTVSPropertyOp20
 70
     1
102
RTVSPropertyOp21
 70
     1
102
RTVSPropertyOp22
 70
     1
102
RTVSPropertyOp23
 70
     1
102
RTVSPropertyOp24
 70
     1
102
RTVSPropertyOp25
 70
     1
102
RTVSPropertyOp26
 70
     1
102
RTVSPropertyOp27
 70
     1
102
RTVSPropertyOp28
 70
     1
102
RTVSPropertyOp29
 70
     1
102
RTVSPropertyOp30
 70
     1
102
RTVSPropertyOp31
 70
     1
102
RTVSPropertyOp32
 70
     1
  0
XRECORD
  5
74
102
{ACAD_REACTORS
330
73
102
}
330
73
100
AcDbXrecord
280
     1
102
RTVSPropertyOp0
 70
     1
102
RTVSPropertyOp1
 70
     1
102
RTVSPropertyOp2
 70
     1
102
RTVSPropertyOp3
 70
     1
102
RTVSPropertyOp4
 70
     1
102
RTVSPropertyOp5
 70
     1
102
RTVSPropertyOp6
 70
     1
102
RTVSPropertyOp7
 70
     1
102
RTVSPropertyOp8
 70
     1
102
RTVSPropertyOp9
 70
     1
102
RTVSPropertyOp10
 70
     1
102
RTVSPropertyOp11
 70
     1
102
RTVSPropertyOp12
 70
     1
102
RTVSPropertyOp13
 70
     1
102
RTVSPropertyOp14
 70
     1
102
RTVSPropertyOp15
 70
     1
102
RTVSPropertyOp16
 70
     1
102
RTVSPropertyOp17
 70
     1
102
RTVSPropertyOp18
 70
     1
102
RTVSPropertyOp19
 70
     1
102
RTVSPropertyOp20
 70
     1
102
RTVSPropertyOp21
 70
     1
102
RTVSPropertyOp22
 70
     1
102
RTVSPropertyOp23
 70
     1
102
RTVSPropertyOp24
 70
     1
102
RTVSPropertyOp25
 70
     1
102
RTVSPropertyOp26
 70
     1
102
RTVSPropertyOp27
 70
     1
102
RTVSPropertyOp28
 70
     1
102
RTVSPropertyOp29
 70
     1
102
RTVSPropertyOp30
 70
     1
102
RTVSPropertyOp31
 70
     1
102
RTVSPropertyOp32
 70
     1
  0
XRECORD
  5
76
102
{ACAD_REACTORS
330
75
102
}
330
75
100
AcDbXrecord
280
     1
102
RTVSPropertyOp0
 70
     1
102
RTVSPropertyOp1
 70
     1
102
RTVSPropertyOp2
 70
     1
102
RTVSPropertyOp3
 70
     1
102
RTVSPropertyOp4
 70
     1
102
RTVSPropertyOp5
 70
     1
102
RTVSPropertyOp6
 70
     1
102
RTVSPropertyOp7
 70
     1
102
RTVSPropertyOp8
 70
     1
102
RTVSPropertyOp9
 70
     1
102
RTVSPropertyOp10
 70
     1
102
RTVSPropertyOp11
 70
     1
102
RTVSPropertyOp12
 70
     1
102
RTVSPropertyOp13
 70
     1
102
RTVSPropertyOp14
 70
     1
102
RTVSPropertyOp15
 70
     1
102
RTVSPropertyOp16
 70
     1
102
RTVSPropertyOp17
 70
     1
102
RTVSPropertyOp18
 70
     1
102
RTVSPropertyOp19
 70
     1
102
RTVSPropertyOp20
 70
     1
102
RTVSPropertyOp21
 70
     1
102
RTVSPropertyOp22
 70
     1
102
RTVSPropertyOp23
 70
     1
102
RTVSPropertyOp24
 70
     1
102
RTVSPropertyOp25
 70
     1
102
RTVSPropertyOp26
 70
     1
102
RTVSPropertyOp27
 70
     1
102
RTVSPropertyOp28
 70
     1
102
RTVSPropertyOp29
 70
     1
102
RTVSPropertyOp30
 70
     1
102
RTVSPropertyOp31
 70
     1
102
RTVSPropertyOp32
 70
     1
  0
XRECORD
  5
78
102
{ACAD_REACTORS
330
77
102
}
330
77
100
AcDbXrecord
280
     1
102
RTVSPropertyOp0
 70
     1
102
RTVSPropertyOp1
 70
     1
102
RTVSPropertyOp2
 70
     1
102
RTVSPropertyOp3
 70
     1
102
RTVSPropertyOp4
 70
     1
102
RTVSPropertyOp5
 70
     1
102
RTVSPropertyOp6
 70
     1
102
RTVSPropertyOp7
 70
     1
102
RTVSPropertyOp8
 70
     1
102
RTVSPropertyOp9
 70
     1
102
RTVSPropertyOp10
 70
     1
102
RTVSPropertyOp11
 70
     1
102
RTVSPropertyOp12
 70
     1
102
RTVSPropertyOp13
 70
     1
102
RTVSPropertyOp14
 70
     1
102
RTVSPropertyOp15
 70
     1
102
RTVSPropertyOp16
 70
     1
102
RTVSPropertyOp17
 70
     1
102
RTVSPropertyOp18
 70
     1
102
RTVSPropertyOp19
 70
     1
102
RTVSPropertyOp20
 70
     1
102
RTVSPropertyOp21
 70
     1
102
RTVSPropertyOp22
 70
     1
102
RTVSPropertyOp23
 70
     1
102
RTVSPropertyOp24
 70
     1
102
RTVSPropertyOp25
 70
     1
102
RTVSPropertyOp26
 70
     1
102
RTVSPropertyOp27
 70
     1
102
RTVSPropertyOp28
 70
     1
102
RTVSPropertyOp29
 70
     1
102
RTVSPropertyOp30
 70
     1
102
RTVSPropertyOp31
 70
     1
102
RTVSPropertyOp32
 70
     1
  0
XRECORD
  5
8C
102
{ACAD_REACTORS
330
8B
102
}
330
8B
100
AcDbXrecord
280
     1
102
RTVSPropertyOp0
 70
     1
102
RTVSPropertyOp1
 70
     1
102
RTVSPropertyOp2
 70
     1
102
RTVSPropertyOp3
 70
     1
102
RTVSPropertyOp4
 70
     1
102
RTVSPropertyOp5
 70
     1
102
RTVSPropertyOp6
 70
     1
102
RTVSPropertyOp7
 70
     1
102
RTVSPropertyOp8
 70
     1
102
RTVSPropertyOp9
 70
     1
102
RTVSPropertyOp10
 70
     1
102
RTVSPropertyOp11
 70
     1
102
RTVSPropertyOp12
 70
     1
102
RTVSPropertyOp13
 70
     1
102
RTVSPropertyOp14
 70
     1
102
RTVSPropertyOp15
 70
     1
102
RTVSPropertyOp16
 70
     1
102
RTVSPropertyOp17
 70
     1
102
RTVSPropertyOp18
 70
     1
102
RTVSPropertyOp19
 70
     1
102
RTVSPropertyOp20
 70
     1
102
RTVSPropertyOp21
 70
     1
102
RTVSPropertyOp22
 70
     1
102
RTVSPropertyOp23
 70
     1
102
RTVSPropertyOp24
 70
     1
102
RTVSPropertyOp25
 70
     1
102
RTVSPropertyOp26
 70
     1
102
RTVSPropertyOp27
 70
     1
102
RTVSPropertyOp28
 70
     1
102
RTVSPropertyOp29
 70
     1
102
RTVSPropertyOp30
 70
     1
102
RTVSPropertyOp31
 70
     1
102
RTVSPropertyOp32
 70
     1
  0
XRECORD
  5
82
102
{ACAD_REACTORS
330
81
102
}
330
81
100
AcDbXrecord
280
     1
102
RTVSPropertyOp0
 70
     1
102
RTVSPropertyOp1
 70
     1
102
RTVSPropertyOp2
 70
     1
102
RTVSPropertyOp3
 70
     1
102
RTVSPropertyOp4
 70
     1
102
RTVSPropertyOp5
 70
     1
102
RTVSPropertyOp6
 70
     1
102
RTVSPropertyOp7
 70
     1
102
RTVSPropertyOp8
 70
     1
102
RTVSPropertyOp9
 70
     1
102
RTVSPropertyOp10
 70
     1
102
RTVSPropertyOp11
 70
     1
102
RTVSPropertyOp12
 70
     1
102
RTVSPropertyOp13
 70
     1
102
RTVSPropertyOp14
 70
     1
102
RTVSPropertyOp15
 70
     1
102
RTVSPropertyOp16
 70
     1
102
RTVSPropertyOp17
 70
     1
102
RTVSPropertyOp18
 70
     1
102
RTVSPropertyOp19
 70
     1
102
RTVSPropertyOp20
 70
     1
102
RTVSPropertyOp21
 70
     1
102
RTVSPropertyOp22
 70
     1
102
RTVSPropertyOp23
 70
     1
102
RTVSPropertyOp24
 70
     1
102
RTVSPropertyOp25
 70
     1
102
RTVSPropertyOp26
 70
     1
102
RTVSPropertyOp27
 70
     1
102
RTVSPropertyOp28
 70
     1
102
RTVSPropertyOp29
 70
     1
102
RTVSPropertyOp30
 70
     1
102
RTVSPropertyOp31
 70
     1
102
RTVSPropertyOp32
 70
     1
  0
XRECORD
  5
8A
102
{ACAD_REACTORS
330
89
102
}
330
89
100
AcDbXrecord
280
     1
102
RTVSPropertyOp0
 70
     1
102
RTVSPropertyOp1
 70
     1
102
RTVSPropertyOp2
 70
     1
102
RTVSPropertyOp3
 70
     1
102
RTVSPropertyOp4
 70
     1
102
RTVSPropertyOp5
 70
     1
102
RTVSPropertyOp6
 70
     1
102
RTVSPropertyOp7
 70
     1
102
RTVSPropertyOp8
 70
     1
102
RTVSPropertyOp9
 70
     1
102
RTVSPropertyOp10
 70
     1
102
RTVSPropertyOp11
 70
     1
102
RTVSPropertyOp12
 70
     1
102
RTVSPropertyOp13
 70
     1
102
RTVSPropertyOp14
 70
     1
102
RTVSPropertyOp15
 70
     1
102
RTVSPropertyOp16
 70
     1
102
RTVSPropertyOp17
 70
     1
102
RTVSPropertyOp18
 70
     1
102
RTVSPropertyOp19
 70
     1
102
RTVSPropertyOp20
 70
     1
102
RTVSPropertyOp21
 70
     1
102
RTVSPropertyOp22
 70
     1
102
RTVSPropertyOp23
 70
     1
102
RTVSPropertyOp24
 70
     1
102
RTVSPropertyOp25
 70
     1
102
RTVSPropertyOp26
 70
     1
102
RTVSPropertyOp27
 70
     1
102
RTVSPropertyOp28
 70
     1
102
RTVSPropertyOp29
 70
     1
102
RTVSPropertyOp30
 70
     1
102
RTVSPropertyOp31
 70
     1
102
RTVSPropertyOp32
 70
     1
  0
ENDSEC
  0
EOF
