  0
SECTION
  2
HEADER
  9
$ACADVER
  1
AC1024
  9
$ACADMAINTVER
 70
   226
  9
$DWGCODEPAGE
  3
ANSI_1252
  9
$INSBASE
 10
0.0
 20
0.0
 30
0.0
  9
$EXTMIN
 10
1.000000000000000E+20
 20
1.000000000000000E+20
 30
1.000000000000000E+20
  9
$EXTMAX
 10
-1.000000000000000E+20
 20
-1.000000000000000E+20
 30
-1.000000000000000E+20
  9
$LIMMIN
 10
0.0
 20
0.0
  9
$LIMMAX
 10
12.0
 20
9.0
  9
$ORTHOMODE
 70
     0
  9
$REGENMODE
 70
     1
  9
$FILLMODE
 70
     1
  9
$QTEXTMODE
 70
     0
  9
$MIRRTEXT
 70
     0
  9
$LTSCALE
 40
1.0
  9
$ATTMODE
 70
     1
  9
$TEXTSIZE
 40
0.2
  9
$TRACEWID
 40
0.05
  9
$TEXTSTYLE
  7
Standard
  9
$CLAYER
  8
0
  9
$CELTYPE
  6
ByLayer
  9
$CECOLOR
 62
   256
  9
$CELTSCALE
 40
1.0
  9
$DISPSILH
 70
     0
  9
$DIMSCALE
 40
1.0
  9
$DIMASZ
 40
0.18
  9
$DIMEXO
 40
0.0625
  9
$DIMDLI
 40
0.38
  9
$DIMRND
 40
0.0
  9
$DIMDLE
 40
0.0
  9
$DIMEXE
 40
0.18
  9
$DIMTP
 40
0.0
  9
$DIMTM
 40
0.0
  9
$DIMTXT
 40
0.18
  9
$DIMCEN
 40
0.09
  9
$DIMTSZ
 40
0.0
  9
$DIMTOL
 70
     0
  9
$DIMLIM
 70
     0
  9
$DIMTIH
 70
     1
  9
$DIMTOH
 70
     1
  9
$DIMSE1
 70
     0
  9
$DIMSE2
 70
     0
  9
$DIMTAD
 70
     0
  9
$DIMZIN
 70
     0
  9
$DIMBLK
  1

  9
$DIMASO
 70
     1
  9
$DIMSHO
 70
     1
  9
$DIMPOST
  1

  9
$DIMAPOST
  1

  9
$DIMALT
 70
     0
  9
$DIMALTD
 70
     2
  9
$DIMALTF
 40
25.4
  9
$DIMLFAC
 40
1.0
  9
$DIMTOFL
 70
     0
  9
$DIMTVP
 40
0.0
  9
$DIMTIX
 70
     0
  9
$DIMSOXD
 70
     0
  9
$DIMSAH
 70
     0
  9
$DIMBLK1
  1

  9
$DIMBLK2
  1

  9
$DIMSTYLE
  2
Standard
  9
$DIMCLRD
 70
     0
  9
$DIMCLRE
 70
     0
  9
$DIMCLRT
 70
     0
  9
$DIMTFAC
 40
1.0
  9
$DIMGAP
 40
0.09
  9
$DIMJUST
 70
     0
  9
$DIMSD1
 70
     0
  9
$DIMSD2
 70
     0
  9
$DIMTOLJ
 70
     1
  9
$DIMTZIN
 70
     0
  9
$DIMALTZ
 70
     0
  9
$DIMALTTZ
 70
     0
  9
$DIMUPT
 70
     0
  9
$DIMDEC
 70
     4
  9
$DIMTDEC
 70
     4
  9
$DIMALTU
 70
     2
  9
$DIMALTTD
 70
     2
  9
$DIMTXSTY
  7
Standard
  9
$DIMAUNIT
 70
     0
  9
$DIMADEC
 70
     0
  9
$DIMALTRND
 40
0.0
  9
$DIMAZIN
 70
     0
  9
$DIMDSEP
 70
    46
  9
$DIMATFIT
 70
     3
  9
$DIMFRAC
 70
     0
  9
$DIMLDRBLK
  1

  9
$DIMLUNIT
 70
     2
  9
$DIMLWD
 70
    -2
  9
$DIMLWE
 70
    -2
  9
$DIMTMOVE
 70
     0
  9
$DIMFXL
 40
1.0
  9
$DIMFXLON
 70
     0
  9
$DIMJOGANG
 40
0.7853981633974483
  9
$DIMTFILL
 70
     0
  9
$DIMTFILLCLR
 70
     0
  9
$DIMARCSYM
 70
     0
  9
$DIMLTYPE
  6

  9
$DIMLTEX1
  6

  9
$DIMLTEX2
  6

  9
$DIMTXTDIRECTION
 70
     0
  9
$LUNITS
 70
     2
  9
$LUPREC
 70
     4
  9
$SKETCHINC
 40
0.1
  9
$FILLETRAD
 40
0.0
  9
$AUNITS
 70
     0
  9
$AUPREC
 70
     0
  9
$MENU
  1
.
  9
$ELEVATION
 40
0.0
  9
$PELEVATION
 40
0.0
  9
$THICKNESS
 40
0.0
  9
$LIMCHECK
 70
     0
  9
$CHAMFERA
 40
0.0
  9
$CHAMFERB
 40
0.0
  9
$CHAMFERC
 40
0.0
  9
$CHAMFERD
 40
0.0
  9
$SKPOLY
 70
     0
  9
$TDCREATE
 40
2459947.390729167
  9
$TDUCREATE
 40
2459947.349062500
  9
$TDUPDATE
 40
2459947.390729167
  9
$TDUUPDATE
 40
2459947.349062500
  9
$TDINDWG
 40
0.0000000000
  9
$TDUSRTIMER
 40
0.0000000000
  9
$USRTIMER
 70
     1
  9
$ANGBASE
 50
0.0
  9
$ANGDIR
 70
     0
  9
$PDMODE
 70
     0
  9
$PDSIZE
 40
0.0
  9
$PLINEWID
 40
0.0
  9
$SPLFRAME
 70
     0
  9
$SPLINETYPE
 70
     6
  9
$SPLINESEGS
 70
     8
  9
$HANDSEED
  5
E6
  9
$SURFTAB1
 70
     6
  9
$SURFTAB2
 70
     6
  9
$SURFTYPE
 70
     6
  9
$SURFU
 70
     6
  9
$SURFV
 70
     6
  9
$UCSBASE
  2

  9
$UCSNAME
  2

  9
$UCSORG
 10
0.0
 20
0.0
 30
0.0
  9
$UCSXDIR
 10
1.0
 20
0.0
 30
0.0
  9
$UCSYDIR
 10
0.0
 20
1.0
 30
0.0
  9
$UCSORTHOREF
  2

  9
$UCSORTHOVIEW
 70
     0
  9
$UCSORGTOP
 10
0.0
 20
0.0
 30
0.0
  9
$UCSORGBOTTOM
 10
0.0
 20
0.0
 30
0.0
  9
$UCSORGLEFT
 10
0.0
 20
0.0
 30
0.0
  9
$UCSORGRIGHT
 10
0.0
 20
0.0
 30
0.0
  9
$UCSORGFRONT
 10
0.0
 20
0.0
 30
0.0
  9
$UCSORGBACK
 10
0.0
 20
0.0
 30
0.0
  9
$PUCSBASE
  2

  9
$PUCSNAME
  2

  9
$PUCSORG
 10
0.0
 20
0.0
 30
0.0
  9
$PUCSXDIR
 10
1.0
 20
0.0
 30
0.0
  9
$PUCSYDIR
 10
0.0
 20
1.0
 30
0.0
  9
$PUCSORTHOREF
  2

  9
$PUCSORTHOVIEW
 70
     0
  9
$PUCSORGTOP
 10
0.0
 20
0.0
 30
0.0
  9
$PUCSORGBOTTOM
 10
0.0
 20
0.0
 30
0.0
  9
$PUCSORGLEFT
 10
0.0
 20
0.0
 30
0.0
  9
$PUCSORGRIGHT
 10
0.0
 20
0.0
 30
0.0
  9
$PUCSORGFRONT
 10
0.0
 20
0.0
 30
0.0
  9
$PUCSORGBACK
 10
0.0
 20
0.0
 30
0.0
  9
$USERI1
 70
     0
  9
$USERI2
 70
     0
  9
$USERI3
 70
     0
  9
$USERI4
 70
     0
  9
$USERI5
 70
     0
  9
$USERR1
 40
0.0
  9
$USERR2
 40
0.0
  9
$USERR3
 40
0.0
  9
$USERR4
 40
0.0
  9
$USERR5
 40
0.0
  9
$WORLDVIEW
 70
     1
  9
$SHADEDGE
 70
     3
  9
$SHADEDIF
 70
    70
  9
$TILEMODE
 70
     1
  9
$MAXACTVP
 70
    64
  9
$PINSBASE
 10
0.0
 20
0.0
 30
0.0
  9
$PLIMCHECK
 70
     0
  9
$PEXTMIN
 10
1.000000000000000E+20
 20
1.000000000000000E+20
 30
1.000000000000000E+20
  9
$PEXTMAX
 10
-1.000000000000000E+20
 20
-1.000000000000000E+20
 30
-1.000000000000000E+20
  9
$PLIMMIN
 10
0.0
 20
0.0
  9
$PLIMMAX
 10
12.0
 20
9.0
  9
$UNITMODE
 70
     0
  9
$VISRETAIN
 70
     1
  9
$PLINEGEN
 70
     0
  9
$PSLTSCALE
 70
     1
  9
$TREEDEPTH
 70
  3020
  9
$CMLSTYLE
  2
Standard
  9
$CMLJUST
 70
     0
  9
$CMLSCALE
 40
1.0
  9
$PROXYGRAPHICS
 70
     1
  9
$MEASUREMENT
 70
     0
  9
$CELWEIGHT
370
    -1
  9
$ENDCAPS
280
     0
  9
$JOINSTYLE
280
     0
  9
$LWDISPLAY
290
     1
  9
$INSUNITS
 70
     4
  9
$HYPERLINKBASE
  1

  9
$STYLESHEET
  1

  9
$XEDIT
290
     1
  9
$CEPSNTYPE
380
     0
  9
$PSTYLEMODE
290
     1
  9
$FINGERPRINTGUID
  2
{3E19ED6D-2F45-B241-B5A0-03DEE216B712}
  9
$VERSIONGUID
  2
{042E6AE6-6B82-864B-82BC-7499CDC4594F}
  9
$EXTNAMES
290
     1
  9
$PSVPSCALE
 40
0.0
  9
$OLESTARTUP
290
     0
  9
$SORTENTS
280
   127
  9
$INDEXCTL
280
     0
  9
$HIDETEXT
280
     1
  9
$XCLIPFRAME
280
     2
  9
$HALOGAP
280
     0
  9
$OBSCOLOR
 70
   257
  9
$OBSLTYPE
280
     0
  9
$INTERSECTIONDISPLAY
280
     0
  9
$INTERSECTIONCOLOR
 70
   257
  9
$DIMASSOC
280
     2
  9
$PROJECTNAME
  1

  9
$CAMERADISPLAY
290
     0
  9
$LENSLENGTH
 40
50.0
  9
$CAMERAHEIGHT
 40
0.0
  9
$STEPSPERSEC
 40
2.0
  9
$STEPSIZE
 40
6.0
  9
$3DDWFPREC
 40
2.0
  9
$PSOLWIDTH
 40
0.25
  9
$PSOLHEIGHT
 40
4.0
  9
$LOFTANG1
 40
1.570796326794896
  9
$LOFTANG2
 40
1.570796326794896
  9
$LOFTMAG1
 40
0.0
  9
$LOFTMAG2
 40
0.0
  9
$LOFTPARAM
 70
     7
  9
$LOFTNORMALS
280
     1
  9
$LATITUDE
 40
37.795
  9
$LONGITUDE
 40
-122.394
  9
$NORTHDIRECTION
 40
0.0
  9
$TIMEZONE
 70
 -8000
  9
$LIGHTGLYPHDISPLAY
280
     1
  9
$TILEMODELIGHTSYNCH
280
     1
  9
$CMATERIAL
347
11
  9
$SOLIDHIST
280
     0
  9
$SHOWHIST
280
     1
  9
$DWFFRAME
280
     2
  9
$DGNFRAME
280
     0
  9
$REALWORLDSCALE
290
     1
  9
$INTERFERECOLOR
 62
     1
  9
$INTERFEREOBJVS
345
33
  9
$INTERFEREVPVS
346
30
  9
$CSHADOW
280
     0
  9
$SHADOWPLANELOCATION
 40
0.0
  0
ENDSEC
  0
SECTION
  2
CLASSES
  0
CLASS
  1
ACDBDICTIONARYWDFLT
  2
AcDbDictionaryWithDefault
  3
ObjectDBX Classes
 90
        0
 91
        1
280
     0
281
     0
  0
CLASS
  1
MATERIAL
  2
AcDbMaterial
  3
ObjectDBX Classes
 90
     1153
 91
        3
280
     0
281
     0
  0
CLASS
  1
VISUALSTYLE
  2
AcDbVisualStyle
  3
ObjectDBX Classes
 90
     4095
 91
       24
280
     0
281
     0
  0
CLASS
  1
SCALE
  2
AcDbScale
  3
ObjectDBX Classes
 90
     1153
 91
       17
280
     0
281
     0
  0
CLASS
  1
TABLESTYLE
  2
AcDbTableStyle
  3
ObjectDBX Classes
 90
     4095
 91
        1
280
     0
281
     0
  0
CLASS
  1
MLEADERSTYLE
  2
AcDbMLeaderStyle
  3
ACDB_MLEADERSTYLE_CLASS
 90
     4095
 91
        1
280
     0
281
     0
  0
CLASS
  1
ACDBSECTIONVIEWSTYLE
  2
AcDbSectionViewStyle
  3
ObjectDBX Classes
 90
     1025
 91
        1
280
     0
281
     0
  0
CLASS
  1
ACDBDETAILVIEWSTYLE
  2
AcDbDetailViewStyle
  3
ObjectDBX Classes
 90
     1025
 91
        1
280
     0
281
     0
  0
CLASS
  1
DICTIONARYVAR
  2
AcDbDictionaryVar
  3
ObjectDBX Classes
 90
        0
 91
        5
280
     0
281
     0
  0
CLASS
  1
CELLSTYLEMAP
  2
AcDbCellStyleMap
  3
ObjectDBX Classes
 90
     1152
 91
        1
280
     0
281
     0
  0
ENDSEC
  0
SECTION
  2
TABLES
  0
TABLE
  2
VPORT
  5
8
330
0
100
AcDbSymbolTable
 70
     1
  0
VPORT
  5
57
330
8
100
AcDbSymbolTableRecord
100
AcDbViewportTableRecord
  2
*Active
 70
     0
 10
0.0
 20
0.0
 11
1.0
 21
1.0
 12
0.0
 22
0.0
 13
0.0
 23
0.0
 14
1.0
 24
1.0
 15
0.0
 25
0.0
 16
0.0
 26
0.0
 36
1.0
 17
12.6464999968384
 27
-2.249999999437469
 37
0.0
 40
4.589999998852438
 41
5.620666666666751
 42
50.0
 43
0.0
 44
0.0
 50
0.0
 51
0.0
 71
     0
 72
   100
 73
     1
 74
     1
 75
     0
 76
     0
 77
     0
 78
     0
281
     0
 65
     1
110
0.0
120
0.0
130
0.0
111
1.0
121
0.0
131
0.0
112
0.0
122
1.0
132
0.0
 79
     0
146
0.0
 60
     3
 61
     5
292
     1
282
     1
141
0.0
142
0.0
 63
   250
421
  3355443
  0
ENDTAB
  0
TABLE
  2
LTYPE
  5
5
330
0
100
AcDbSymbolTable
 70
     1
  0
LTYPE
  5
5B
330
5
100
AcDbSymbolTableRecord
100
AcDbLinetypeTableRecord
  2
ByBlock
 70
     0
  3

 72
    65
 73
     0
 40
0.0
  0
LTYPE
  5
5C
330
5
100
AcDbSymbolTableRecord
100
AcDbLinetypeTableRecord
  2
ByLayer
 70
     0
  3

 72
    65
 73
     0
 40
0.0
  0
LTYPE
  5
5D
330
5
100
AcDbSymbolTableRecord
100
AcDbLinetypeTableRecord
  2
Continuous
 70
     0
  3
Solid line
 72
    65
 73
     0
 40
0.0
  0
ENDTAB
  0
TABLE
  2
LAYER
  5
2
330
0
100
AcDbSymbolTable
 70
     2
  0
LAYER
  5
54
330
2
100
AcDbSymbolTableRecord
100
AcDbLayerTableRecord
  2
0
 70
     0
 62
     7
  6
Continuous
370
    -3
390
F
347
21
  0
LAYER
  5
78
330
2
100
AcDbSymbolTableRecord
100
AcDbLayerTableRecord
  2
Ebene 1
 70
     0
 62
     7
  6
Continuous
370
     0
390
F
347
21
  0
ENDTAB
  0
TABLE
  2
STYLE
  5
3
330
0
100
AcDbSymbolTable
 70
     2
  0
STYLE
  5
55
330
3
100
AcDbSymbolTableRecord
100
AcDbTextStyleTableRecord
  2
Standard
 70
     0
 40
0.0
 41
1.0
 50
0.0
 71
     0
 42
0.2
  3
txt
  4

  0
STYLE
  5
5A
330
3
100
AcDbSymbolTableRecord
100
AcDbTextStyleTableRecord
  2
Annotative
 70
     0
 40
0.0
 41
1.0
 50
0.0
 71
     0
 42
0.2
  3
txt
  4

1001
AcadAnnotative
1000
AnnotativeData
1002
{
1070
     1
1070
     1
1002
}
  0
ENDTAB
  0
TABLE
  2
VIEW
  5
6
330
0
100
AcDbSymbolTable
 70
     0
  0
ENDTAB
  0
TABLE
  2
UCS
  5
7
330
0
100
AcDbSymbolTable
 70
     0
  0
ENDTAB
  0
TABLE
  2
APPID
  5
9
330
0
100
AcDbSymbolTable
 70
     2
  0
APPID
  5
56
330
9
100
AcDbSymbolTableRecord
100
AcDbRegAppTableRecord
  2
ACAD
 70
     0
  0
APPID
  5
5E
330
9
100
AcDbSymbolTableRecord
100
AcDbRegAppTableRecord
  2
AcadAnnotative
 70
     0
  0
ENDTAB
  0
TABLE
  2
DIMSTYLE
  5
A
330
0
100
AcDbSymbolTable
 70
     2
100
AcDbDimStyleTable
 71
     0
  0
DIMSTYLE
105
58
330
A
100
AcDbSymbolTableRecord
100
AcDbDimStyleTableRecord
  2
Standard
 70
     0
340
55
  0
DIMSTYLE
105
59
330
A
100
AcDbSymbolTableRecord
100
AcDbDimStyleTableRecord
  2
Annotative
 70
     0
340
55
1001
AcadAnnotative
1000
AnnotativeData
1002
{
1070
     1
1070
     1
1002
}
  0
ENDTAB
  0
TABLE
  2
BLOCK_RECORD
  5
1
330
0
100
AcDbSymbolTable
 70
     2
  0
BLOCK_RECORD
  5
70
330
1
100
AcDbSymbolTableRecord
100
AcDbBlockTableRecord
  2
*Model_Space
340
73
 70
     0
280
     1
281
     0
  0
BLOCK_RECORD
  5
6C
330
1
100
AcDbSymbolTableRecord
100
AcDbBlockTableRecord
  2
*Paper_Space
340
6F
 70
     0
280
     1
281
     0
  0
BLOCK_RECORD
  5
74
330
1
100
AcDbSymbolTableRecord
100
AcDbBlockTableRecord
  2
*Paper_Space0
340
77
 70
     0
280
     1
281
     0
  0
BLOCK_RECORD
  5
79
330
1
100
AcDbSymbolTableRecord
100
AcDbBlockTableRecord
  2
Block_0
340
0
102
{BLKREFS
331
7A
102
}
 70
     0
280
     1
281
     0
  0
ENDTAB
  0
ENDSEC
  0
SECTION
  2
BLOCKS
  0
BLOCK
  5
71
330
70
100
AcDbEntity
  8
0
100
AcDbBlockBegin
  2
*Model_Space
 70
     0
 10
0.0
 20
0.0
 30
0.0
  3
*Model_Space
  1

  0
ENDBLK
  5
72
330
70
100
AcDbEntity
  8
0
100
AcDbBlockEnd
  0
BLOCK
  5
6D
330
6C
100
AcDbEntity
 67
     1
  8
0
100
AcDbBlockBegin
  2
*Paper_Space
 70
     0
 10
0.0
 20
0.0
 30
0.0
  3
*Paper_Space
  1

  0
ENDBLK
  5
6E
330
6C
100
AcDbEntity
 67
     1
  8
0
100
AcDbBlockEnd
  0
BLOCK
  5
75
330
74
100
AcDbEntity
 67
     1
  8
0
100
AcDbBlockBegin
  2
*Paper_Space0
 70
     0
 10
0.0
 20
0.0
 30
0.0
  3
*Paper_Space0
  1

  0
ENDBLK
  5
76
330
74
100
AcDbEntity
 67
     1
  8
0
100
AcDbBlockEnd
  0
BLOCK
  5
7B
330
79
100
AcDbEntity
  8
0
100
AcDbBlockBegin
  2
Block_0
 70
     0
 10
0.0
 20
0.0
 30
0.0
  3
Block_0
  1

  0
SPLINE
  5
7D
330
79
100
AcDbEntity
  8
Ebene 1
100
AcDbSpline
210
0.0
220
0.0
230
1.0
 70
    11
 71
     3
 72
    62
 73
    58
 74
     0
 42
0.0000000001
 43
0.0000000001
 40
0.0
 40
0.0
 40
0.0
 40
0.0
 40
1.0
 40
1.0
 40
1.0
 40
2.0
 40
2.0
 40
2.0
 40
3.0
 40
3.0
 40
3.0
 40
4.0
 40
4.0
 40
4.0
 40
5.0
 40
5.0
 40
5.0
 40
6.0
 40
6.0
 40
6.0
 40
7.0
 40
7.0
 40
7.0
 40
8.0
 40
8.0
 40
8.0
 40
9.0
 40
9.0
 40
9.0
 40
10.0
 40
10.0
 40
10.0
 40
11.0
 40
11.0
 40
11.0
 40
12.0
 40
12.0
 40
12.0
 40
13.0
 40
13.0
 40
13.0
 40
14.0
 40
14.0
 40
14.0
 40
15.0
 40
15.0
 40
15.0
 40
16.0
 40
16.0
 40
16.0
 40
17.0
 40
17.0
 40
17.0
 40
18.0
 40
18.0
 40
18.0
 40
19.0
 40
19.0
 40
19.0
 40
19.0
 10
0.9999999997500935
 20
-2.938108745505674
 30
0.0
 10
0.9999999997500935
 20
-2.938108745505674
 30
0.0
 10
1.404543844362029
 20
-0.9999999997500935
 30
0.0
 10
1.404543844362029
 20
-0.9999999997500935
 30
0.0
 10
1.404543844362029
 20
-0.9999999997500935
 30
0.0
 10
1.723155172961771
 20
-0.9999999997500935
 30
0.0
 10
1.723155172961771
 20
-0.9999999997500935
 30
0.0
 10
1.723155172961771
 20
-0.9999999997500935
 30
0.0
 10
1.918816901728376
 20
-2.255936772238269
 30
0.0
 10
1.918816901728376
 20
-2.255936772238269
 30
0.0
 10
1.944376316747308
 20
-2.420750931154516
 30
0.0
 10
1.961122140380424
 20
-2.578954896530598
 30
0.0
 10
1.969054372627402
 20
-2.730548668367799
 30
0.0
 10
2.022817280081782
 20
-2.600107515856622
 30
0.0
 10
2.112715912217946
 20
-2.423395008570068
 30
0.0
 10
2.238750269036215
 20
-2.200411146507175
 30
0.0
 10
2.238750269036215
 20
-2.200411146507175
 30
0.0
 10
2.918278164887426
 20
-0.9999999997500935
 30
0.0
 10
2.918278164887426
 20
-0.9999999997500935
 30
0.0
 10
2.918278164887426
 20
-0.9999999997500935
 30
0.0
 10
3.242177648318273
 20
-0.9999999997500935
 30
0.0
 10
3.242177648318273
 20
-0.9999999997500935
 30
0.0
 10
3.242177648318273
 20
-0.9999999997500935
 30
0.0
 10
2.837633803706338
 20
-2.938108745505674
 30
0.0
 10
2.837633803706338
 20
-2.938108745505674
 30
0.0
 10
2.837633803706338
 20
-2.938108745505674
 30
0.0
 10
2.582480333084989
 20
-2.938108745505674
 30
0.0
 10
2.582480333084989
 20
-2.938108745505674
 30
0.0
 10
2.582480333084989
 20
-2.938108745505674
 30
0.0
 10
2.784752255391117
 20
-1.995495146785494
 30
0.0
 10
2.784752255391117
 20
-1.995495146785494
 30
0.0
 10
2.831464289736074
 20
-1.777799439554026
 30
0.0
 10
2.898447584268858
 20
-1.533662958165109
 30
0.0
 10
2.985702138989469
 20
-1.263085702618741
 30
0.0
 10
2.930176513257734
 20
-1.389120059436689
 30
0.0
 10
2.861430500448556
 20
-1.524849366779292
 30
0.0
 10
2.779464100560012
 20
-1.670273624646229
 30
0.0
 10
2.779464100560012
 20
-1.670273624646229
 30
0.0
 10
2.057630966056111
 20
-2.938108745505674
 30
0.0
 10
2.057630966056111
 20
-2.938108745505674
 30
0.0
 10
2.057630966056111
 20
-2.938108745505674
 30
0.0
 10
1.807765650265867
 20
-2.938108745505674
 30
0.0
 10
1.807765650265867
 20
-2.938108745505674
 30
0.0
 10
1.807765650265867
 20
-2.938108745505674
 30
0.0
 10
1.61342596020768
 20
-1.695392360096544
 30
0.0
 10
1.61342596020768
 20
-1.695392360096544
 30
0.0
 10
1.595798777436046
 20
-1.581697031218483
 30
0.0
 10
1.583019069926259
 20
-1.44905248086037
 30
0.0
 10
1.57508683767896
 20
-1.297458709023811
 30
0.0
 10
1.553052859214419
 20
-1.467561022771163
 30
0.0
 10
1.531459560318815
 20
-1.602408970975248
 30
0.0
 10
1.51030694099247
 20
-1.702002553635426
 30
0.0
 10
1.51030694099247
 20
-1.702002553635426
 30
0.0
 10
1.252509392955569
 20
-2.938108745505674
 30
0.0
 10
1.252509392955569
 20
-2.938108745505674
 30
0.0
 10
1.252509392955569
 20
-2.938108745505674
 30
0.0
 10
0.9999999997500935
 20
-2.938108745505674
 30
0.0
 10
0.9999999997500935
 20
-2.938108745505674
 30
0.0
  0
HATCH
  5
7E
330
79
100
AcDbEntity
  8
Ebene 1
 62
   250
420
  1907995
440
 33554687
100
AcDbHatch
 10
0.0
 20
0.0
 30
0.0
210
0.0
220
0.0
230
1.0
  2
SOLID
 70
     1
 71
     1
 91
        1
 92
        1
 93
        1
 72
     4
 94
        3
 73
     0
 74
     0
 95
       62
 96
       58
 40
0.0
 40
0.0
 40
0.0
 40
0.0
 40
1.0
 40
1.0
 40
1.0
 40
2.0
 40
2.0
 40
2.0
 40
3.0
 40
3.0
 40
3.0
 40
4.0
 40
4.0
 40
4.0
 40
5.0
 40
5.0
 40
5.0
 40
6.0
 40
6.0
 40
6.0
 40
7.0
 40
7.0
 40
7.0
 40
8.0
 40
8.0
 40
8.0
 40
9.0
 40
9.0
 40
9.0
 40
10.0
 40
10.0
 40
10.0
 40
11.0
 40
11.0
 40
11.0
 40
12.0
 40
12.0
 40
12.0
 40
13.0
 40
13.0
 40
13.0
 40
14.0
 40
14.0
 40
14.0
 40
15.0
 40
15.0
 40
15.0
 40
16.0
 40
16.0
 40
16.0
 40
17.0
 40
17.0
 40
17.0
 40
18.0
 40
18.0
 40
18.0
 40
19.0
 40
19.0
 40
19.0
 40
19.0
 10
0.9999999997500935
 20
-2.938108745505674
 10
0.9999999997500935
 20
-2.938108745505674
 10
1.404543844362029
 20
-0.9999999997500935
 10
1.404543844362029
 20
-0.9999999997500935
 10
1.404543844362029
 20
-0.9999999997500935
 10
1.723155172961771
 20
-0.9999999997500935
 10
1.723155172961771
 20
-0.9999999997500935
 10
1.723155172961771
 20
-0.9999999997500935
 10
1.918816901728376
 20
-2.255936772238269
 10
1.918816901728376
 20
-2.255936772238269
 10
1.944376316747308
 20
-2.420750931154516
 10
1.961122140380424
 20
-2.578954896530598
 10
1.969054372627402
 20
-2.730548668367799
 10
2.022817280081782
 20
-2.600107515856622
 10
2.112715912217946
 20
-2.423395008570068
 10
2.238750269036215
 20
-2.200411146507175
 10
2.238750269036215
 20
-2.200411146507175
 10
2.918278164887426
 20
-0.9999999997500935
 10
2.918278164887426
 20
-0.9999999997500935
 10
2.918278164887426
 20
-0.9999999997500935
 10
3.242177648318273
 20
-0.9999999997500935
 10
3.242177648318273
 20
-0.9999999997500935
 10
3.242177648318273
 20
-0.9999999997500935
 10
2.837633803706338
 20
-2.938108745505674
 10
2.837633803706338
 20
-2.938108745505674
 10
2.837633803706338
 20
-2.938108745505674
 10
2.582480333084989
 20
-2.938108745505674
 10
2.582480333084989
 20
-2.938108745505674
 10
2.582480333084989
 20
-2.938108745505674
 10
2.784752255391117
 20
-1.995495146785494
 10
2.784752255391117
 20
-1.995495146785494
 10
2.831464289736074
 20
-1.777799439554026
 10
2.898447584268858
 20
-1.533662958165109
 10
2.985702138989469
 20
-1.263085702618741
 10
2.930176513257734
 20
-1.389120059436689
 10
2.861430500448556
 20
-1.524849366779292
 10
2.779464100560012
 20
-1.670273624646229
 10
2.779464100560012
 20
-1.670273624646229
 10
2.057630966056111
 20
-2.938108745505674
 10
2.057630966056111
 20
-2.938108745505674
 10
2.057630966056111
 20
-2.938108745505674
 10
1.807765650265867
 20
-2.938108745505674
 10
1.807765650265867
 20
-2.938108745505674
 10
1.807765650265867
 20
-2.938108745505674
 10
1.61342596020768
 20
-1.695392360096544
 10
1.61342596020768
 20
-1.695392360096544
 10
1.595798777436046
 20
-1.581697031218483
 10
1.583019069926259
 20
-1.44905248086037
 10
1.57508683767896
 20
-1.297458709023811
 10
1.553052859214419
 20
-1.467561022771163
 10
1.531459560318815
 20
-1.602408970975248
 10
1.51030694099247
 20
-1.702002553635426
 10
1.51030694099247
 20
-1.702002553635426
 10
1.252509392955569
 20
-2.938108745505674
 10
1.252509392955569
 20
-2.938108745505674
 10
1.252509392955569
 20
-2.938108745505674
 10
0.9999999997500935
 20
-2.938108745505674
 10
0.9999999997500935
 20
-2.938108745505674
 97
        0
 97
        1
330
7D
 75
     2
 76
     1
 98
        1
 10
0.0
 20
0.0
450
        0
451
        0
460
0.0
461
0.0
452
        0
462
0.0
453
        0
470

  0
SPLINE
  5
7F
330
79
100
AcDbEntity
  8
Ebene 1
100
AcDbSpline
210
0.0
220
0.0
230
1.0
 70
     9
 71
     3
 72
    35
 73
    31
 74
     0
 42
0.0000000001
 43
0.0000000001
 40
0.0
 40
0.0
 40
0.0
 40
0.0
 40
1.0
 40
1.0
 40
1.0
 40
2.0
 40
2.0
 40
2.0
 40
3.0
 40
3.0
 40
3.0
 40
4.0
 40
4.0
 40
4.0
 40
5.0
 40
5.0
 40
5.0
 40
6.0
 40
6.0
 40
6.0
 40
7.0
 40
7.0
 40
7.0
 40
8.0
 40
8.0
 40
8.0
 40
9.0
 40
9.0
 40
9.0
 40
10.0
 40
10.0
 40
10.0
 40
10.0
 10
4.261469492095572
 20
-2.226851920664624
 30
0.0
 10
4.227977844829019
 20
-2.24007230774367
 30
0.0
 10
4.192062459931544
 20
-2.250207937837263
 30
0.0
 10
4.153723337402825
 20
-2.257258810946366
 30
0.0
 10
4.115384214874426
 20
-2.264309684054826
 30
0.0
 10
4.051265337542144
 20
-2.271801236732546
 30
0.0
 10
3.961366705406301
 20
-2.279733468979845
 30
0.0
 10
3.822111961509307
 20
-2.292072496920373
 30
0.0
 10
3.723840417556906
 20
-2.307716621630022
 30
0.0
 10
3.666552073548777
 20
-2.326665843110073
 30
0.0
 10
3.609263729540007
 20
-2.345615064589803
 30
0.0
 10
3.566077131749441
 20
-2.375801615086273
 30
0.0
 10
3.536992280176118
 20
-2.417225494600125
 30
0.0
 10
3.507907428602794
 20
-2.458649374113655
 30
0.0
 10
3.493365002815973
 20
-2.504480049320095
 30
0.0
 10
3.493365002815973
 20
-2.554717520220084
 30
0.0
 10
3.493365002815973
 20
-2.621700814752226
 30
0.0
 10
3.516500680203982
 20
-2.676785760914061
 30
0.0
 10
3.56277203497968
 20
-2.719972358704948
 30
0.0
 10
3.609043389755698
 20
-2.763158956495513
 30
0.0
 10
3.674924985365335
 20
-2.784752255391117
 30
0.0
 10
3.76041682180827
 20
-2.784752255391117
 30
0.0
 10
3.839739144280941
 20
-2.784752255391117
 30
0.0
 10
3.915976709769442
 20
-2.763819975849401
 30
0.0
 10
3.989129518271527
 20
-2.721955416766933
 30
0.0
 10
4.062282326774576
 20
-2.680090857683822
 30
0.0
 10
4.120011350352284
 20
-2.621700814752226
 30
0.0
 10
4.162316589004332
 20
-2.546785287971822
 30
0.0
 10
4.204621827656701
 20
-2.471869761191739
 30
0.0
 10
4.237672795353674
 20
-2.365225305423101
 30
0.0
 10
4.261469492095572
 20
-2.226851920664624
 30
0.0
  0
SPLINE
  5
80
330
79
100
AcDbEntity
  8
Ebene 1
100
AcDbSpline
210
0.0
220
0.0
230
1.0
 70
     9
 71
     3
 72
    80
 73
    76
 74
     0
 42
0.0000000001
 43
0.0000000001
 40
0.0
 40
0.0
 40
0.0
 40
0.0
 40
1.0
 40
1.0
 40
1.0
 40
2.0
 40
2.0
 40
2.0
 40
3.0
 40
3.0
 40
3.0
 40
4.0
 40
4.0
 40
4.0
 40
5.0
 40
5.0
 40
5.0
 40
6.0
 40
6.0
 40
6.0
 40
7.0
 40
7.0
 40
7.0
 40
8.0
 40
8.0
 40
8.0
 40
9.0
 40
9.0
 40
9.0
 40
10.0
 40
10.0
 40
10.0
 40
11.0
 40
11.0
 40
11.0
 40
12.0
 40
12.0
 40
12.0
 40
13.0
 40
13.0
 40
13.0
 40
14.0
 40
14.0
 40
14.0
 40
15.0
 40
15.0
 40
15.0
 40
16.0
 40
16.0
 40
16.0
 40
17.0
 40
17.0
 40
17.0
 40
18.0
 40
18.0
 40
18.0
 40
19.0
 40
19.0
 40
19.0
 40
20.0
 40
20.0
 40
20.0
 40
21.0
 40
21.0
 40
21.0
 40
22.0
 40
22.0
 40
22.0
 40
23.0
 40
23.0
 40
23.0
 40
24.0
 40
24.0
 40
24.0
 40
25.0
 40
25.0
 40
25.0
 40
25.0
 10
4.172892898667184
 20
-2.763599636064772
 30
0.0
 10
4.090045139640123
 20
-2.834989726290785
 30
0.0
 10
4.010282137597552
 20
-2.887210255251797
 30
0.0
 10
3.933603892540754
 20
-2.920261222949091
 30
0.0
 10
3.856925647483636
 20
-2.953312190645743
 30
0.0
 10
3.774959247594771
 20
-2.96983767449455
 30
0.0
 10
3.68770469287448
 20
-2.96983767449455
 30
0.0
 10
3.558144899502463
 20
-2.96983767449455
 30
0.0
 10
3.453703841579477
 20
-2.931718891750781
 30
0.0
 10
3.374381519106485
 20
-2.855481326262601
 30
0.0
 10
3.295059196633815
 20
-2.779243760775062
 30
0.0
 10
3.255398035397319
 20
-2.681633236176228
 30
0.0
 10
3.255398035397319
 20
-2.562649752467062
 30
0.0
 10
3.255398035397319
 20
-2.484208789132588
 30
0.0
 10
3.273245557953582
 20
-2.41480175696856
 30
0.0
 10
3.308940603066428
 20
-2.35442865597562
 30
0.0
 10
3.344635648179274
 20
-2.294055554982359
 30
0.0
 10
3.392008701878119
 20
-2.245580802359726
 30
0.0
 10
3.451059764163603
 20
-2.209004398108041
 30
0.0
 10
3.510110826449088
 20
-2.172427993857319
 30
0.0
 10
3.582382275813619
 20
-2.146207559484178
 30
0.0
 10
3.667874112256554
 20
-2.130343094989259
 30
0.0
 10
3.721637019710613
 20
-2.119766785326407
 30
0.0
 10
3.823654340002034
 20
-2.111393873509528
 30
0.0
 10
3.973926073131138
 20
-2.105224359539585
 30
0.0
 10
4.124197806260242
 20
-2.099054845569642
 30
0.0
 10
4.231943960952668
 20
-2.083190381075043
 30
0.0
 10
4.297164537208418
 20
-2.057630966056111
 30
0.0
 10
4.315673079118248
 20
-1.992410389800362
 30
0.0
 10
4.324927350073965
 20
-1.938206802777044
 30
0.0
 10
4.324927350073965
 20
-1.895020204986478
 30
0.0
 10
4.324927350073965
 20
-1.839494579255384
 30
0.0
 10
4.304656089886138
 20
-1.795867301895239
 30
0.0
 10
4.264113569511445
 20
-1.764138372905722
 30
0.0
 10
4.20858794378003
 20
-1.720070415976959
 30
0.0
 10
4.127502903029682
 20
-1.698036437511776
 30
0.0
 10
4.020858447260724
 20
-1.698036437511776
 30
0.0
 10
3.920383505462029
 20
-1.698036437511776
 30
0.0
 10
3.838196765788535
 20
-1.720290755761268
 30
0.0
 10
3.774298228240562
 20
-1.764799392259931
 30
0.0
 10
3.710399690693231
 20
-1.809308028758593
 30
0.0
 10
3.663907996132904
 20
-1.872545546952357
 30
0.0
 10
3.634823144559581
 20
-1.954511946841222
 30
0.0
 10
3.634823144559581
 20
-1.954511946841222
 30
0.0
 10
3.392890061016636
 20
-1.933359327515198
 30
0.0
 10
3.392890061016636
 20
-1.933359327515198
 30
0.0
 10
3.442246172777787
 20
-1.794104583618204
 30
0.0
 10
3.520466796327631
 20
-1.687460127848924
 30
0.0
 10
3.62755193166617
 20
-1.61342596020768
 30
0.0
 10
3.734637067004388
 20
-1.539391792566114
 30
0.0
 10
3.869705354993423
 20
-1.502374708745171
 30
0.0
 10
4.032756795631673
 20
-1.502374708745171
 30
0.0
 10
4.206384545933415
 20
-1.502374708745171
 30
0.0
 10
4.343876571553695
 20
-1.543798588259022
 30
0.0
 10
4.445232872491228
 20
-1.626646347286084
 30
0.0
 10
4.522792476686864
 20
-1.688341486987442
 30
0.0
 10
4.561572278784842
 20
-1.768545168598951
 30
0.0
 10
4.561572278784842
 20
-1.867257392120611
 30
0.0
 10
4.561572278784842
 20
-1.942172918901015
 30
0.0
 10
4.550555289552411
 20
-2.028986794051725
 30
0.0
 10
4.528521311087869
 20
-2.127699017573385
 30
0.0
 10
4.528521311087869
 20
-2.127699017573385
 30
0.0
 10
4.450521027322654
 20
-2.476717236454868
 30
0.0
 10
4.450521027322654
 20
-2.476717236454868
 30
0.0
 10
4.425842971441918
 20
-2.587768487916735
 30
0.0
 10
4.413503943502032
 20
-2.678107799621837
 30
0.0
 10
4.413503943502032
 20
-2.747735171570174
 30
0.0
 10
4.413503943502032
 20
-2.791803128499578
 30
0.0
 10
4.423198894026366
 20
-2.855260986478292
 30
0.0
 10
4.442588795075355
 20
-2.938108745505674
 30
0.0
 10
4.442588795075355
 20
-2.938108745505674
 30
0.0
 10
4.200655711533372
 20
-2.938108745505674
 30
0.0
 10
4.200655711533372
 20
-2.938108745505674
 30
0.0
 10
4.187435324454006
 20
-2.892278070298914
 30
0.0
 10
4.178181053499251
 20
-2.834108367151947
 30
0.0
 10
4.172892898667184
 20
-2.763599636064772
 30
0.0
  0
HATCH
  5
81
330
79
100
AcDbEntity
  8
Ebene 1
 62
   250
420
  1907995
440
 33554687
100
AcDbHatch
 10
0.0
 20
0.0
 30
0.0
210
0.0
220
0.0
230
1.0
  2
SOLID
 70
     1
 71
     1
 91
        2
 92
        1
 93
        1
 72
     4
 94
        3
 73
     0
 74
     0
 95
       35
 96
       31
 40
0.0
 40
0.0
 40
0.0
 40
0.0
 40
1.0
 40
1.0
 40
1.0
 40
2.0
 40
2.0
 40
2.0
 40
3.0
 40
3.0
 40
3.0
 40
4.0
 40
4.0
 40
4.0
 40
5.0
 40
5.0
 40
5.0
 40
6.0
 40
6.0
 40
6.0
 40
7.0
 40
7.0
 40
7.0
 40
8.0
 40
8.0
 40
8.0
 40
9.0
 40
9.0
 40
9.0
 40
10.0
 40
10.0
 40
10.0
 40
10.0
 10
4.261469492095572
 20
-2.226851920664624
 10
4.227977844829019
 20
-2.24007230774367
 10
4.192062459931544
 20
-2.250207937837263
 10
4.153723337402825
 20
-2.257258810946366
 10
4.115384214874426
 20
-2.264309684054826
 10
4.051265337542144
 20
-2.271801236732546
 10
3.961366705406301
 20
-2.279733468979845
 10
3.822111961509307
 20
-2.292072496920373
 10
3.723840417556906
 20
-2.307716621630022
 10
3.666552073548777
 20
-2.326665843110073
 10
3.609263729540007
 20
-2.345615064589803
 10
3.566077131749441
 20
-2.375801615086273
 10
3.536992280176118
 20
-2.417225494600125
 10
3.507907428602794
 20
-2.458649374113655
 10
3.493365002815973
 20
-2.504480049320095
 10
3.493365002815973
 20
-2.554717520220084
 10
3.493365002815973
 20
-2.621700814752226
 10
3.516500680203982
 20
-2.676785760914061
 10
3.56277203497968
 20
-2.719972358704948
 10
3.609043389755698
 20
-2.763158956495513
 10
3.674924985365335
 20
-2.784752255391117
 10
3.76041682180827
 20
-2.784752255391117
 10
3.839739144280941
 20
-2.784752255391117
 10
3.915976709769442
 20
-2.763819975849401
 10
3.989129518271527
 20
-2.721955416766933
 10
4.062282326774576
 20
-2.680090857683822
 10
4.120011350352284
 20
-2.621700814752226
 10
4.162316589004332
 20
-2.546785287971822
 10
4.204621827656701
 20
-2.471869761191739
 10
4.237672795353674
 20
-2.365225305423101
 10
4.261469492095572
 20
-2.226851920664624
 97
        0
 97
        1
330
7F
 92
        1
 93
        1
 72
     4
 94
        3
 73
     0
 74
     0
 95
       80
 96
       76
 40
0.0
 40
0.0
 40
0.0
 40
0.0
 40
1.0
 40
1.0
 40
1.0
 40
2.0
 40
2.0
 40
2.0
 40
3.0
 40
3.0
 40
3.0
 40
4.0
 40
4.0
 40
4.0
 40
5.0
 40
5.0
 40
5.0
 40
6.0
 40
6.0
 40
6.0
 40
7.0
 40
7.0
 40
7.0
 40
8.0
 40
8.0
 40
8.0
 40
9.0
 40
9.0
 40
9.0
 40
10.0
 40
10.0
 40
10.0
 40
11.0
 40
11.0
 40
11.0
 40
12.0
 40
12.0
 40
12.0
 40
13.0
 40
13.0
 40
13.0
 40
14.0
 40
14.0
 40
14.0
 40
15.0
 40
15.0
 40
15.0
 40
16.0
 40
16.0
 40
16.0
 40
17.0
 40
17.0
 40
17.0
 40
18.0
 40
18.0
 40
18.0
 40
19.0
 40
19.0
 40
19.0
 40
20.0
 40
20.0
 40
20.0
 40
21.0
 40
21.0
 40
21.0
 40
22.0
 40
22.0
 40
22.0
 40
23.0
 40
23.0
 40
23.0
 40
24.0
 40
24.0
 40
24.0
 40
25.0
 40
25.0
 40
25.0
 40
25.0
 10
4.172892898667184
 20
-2.763599636064772
 10
4.090045139640123
 20
-2.834989726290785
 10
4.010282137597552
 20
-2.887210255251797
 10
3.933603892540754
 20
-2.920261222949091
 10
3.856925647483636
 20
-2.953312190645743
 10
3.774959247594771
 20
-2.96983767449455
 10
3.68770469287448
 20
-2.96983767449455
 10
3.558144899502463
 20
-2.96983767449455
 10
3.453703841579477
 20
-2.931718891750781
 10
3.374381519106485
 20
-2.855481326262601
 10
3.295059196633815
 20
-2.779243760775062
 10
3.255398035397319
 20
-2.681633236176228
 10
3.255398035397319
 20
-2.562649752467062
 10
3.255398035397319
 20
-2.484208789132588
 10
3.273245557953582
 20
-2.41480175696856
 10
3.308940603066428
 20
-2.35442865597562
 10
3.344635648179274
 20
-2.294055554982359
 10
3.392008701878119
 20
-2.245580802359726
 10
3.451059764163603
 20
-2.209004398108041
 10
3.510110826449088
 20
-2.172427993857319
 10
3.582382275813619
 20
-2.146207559484178
 10
3.667874112256554
 20
-2.130343094989259
 10
3.721637019710613
 20
-2.119766785326407
 10
3.823654340002034
 20
-2.111393873509528
 10
3.973926073131138
 20
-2.105224359539585
 10
4.124197806260242
 20
-2.099054845569642
 10
4.231943960952668
 20
-2.083190381075043
 10
4.297164537208418
 20
-2.057630966056111
 10
4.315673079118248
 20
-1.992410389800362
 10
4.324927350073965
 20
-1.938206802777044
 10
4.324927350073965
 20
-1.895020204986478
 10
4.324927350073965
 20
-1.839494579255384
 10
4.304656089886138
 20
-1.795867301895239
 10
4.264113569511445
 20
-1.764138372905722
 10
4.20858794378003
 20
-1.720070415976959
 10
4.127502903029682
 20
-1.698036437511776
 10
4.020858447260724
 20
-1.698036437511776
 10
3.920383505462029
 20
-1.698036437511776
 10
3.838196765788535
 20
-1.720290755761268
 10
3.774298228240562
 20
-1.764799392259931
 10
3.710399690693231
 20
-1.809308028758593
 10
3.663907996132904
 20
-1.872545546952357
 10
3.634823144559581
 20
-1.954511946841222
 10
3.634823144559581
 20
-1.954511946841222
 10
3.392890061016636
 20
-1.933359327515198
 10
3.392890061016636
 20
-1.933359327515198
 10
3.442246172777787
 20
-1.794104583618204
 10
3.520466796327631
 20
-1.687460127848924
 10
3.62755193166617
 20
-1.61342596020768
 10
3.734637067004388
 20
-1.539391792566114
 10
3.869705354993423
 20
-1.502374708745171
 10
4.032756795631673
 20
-1.502374708745171
 10
4.206384545933415
 20
-1.502374708745171
 10
4.343876571553695
 20
-1.543798588259022
 10
4.445232872491228
 20
-1.626646347286084
 10
4.522792476686864
 20
-1.688341486987442
 10
4.561572278784842
 20
-1.768545168598951
 10
4.561572278784842
 20
-1.867257392120611
 10
4.561572278784842
 20
-1.942172918901015
 10
4.550555289552411
 20
-2.028986794051725
 10
4.528521311087869
 20
-2.127699017573385
 10
4.528521311087869
 20
-2.127699017573385
 10
4.450521027322654
 20
-2.476717236454868
 10
4.450521027322654
 20
-2.476717236454868
 10
4.425842971441918
 20
-2.587768487916735
 10
4.413503943502032
 20
-2.678107799621837
 10
4.413503943502032
 20
-2.747735171570174
 10
4.413503943502032
 20
-2.791803128499578
 10
4.423198894026366
 20
-2.855260986478292
 10
4.442588795075355
 20
-2.938108745505674
 10
4.442588795075355
 20
-2.938108745505674
 10
4.200655711533372
 20
-2.938108745505674
 10
4.200655711533372
 20
-2.938108745505674
 10
4.187435324454006
 20
-2.892278070298914
 10
4.178181053499251
 20
-2.834108367151947
 10
4.172892898667184
 20
-2.763599636064772
 97
        0
 97
        1
330
80
 75
     2
 76
     1
 98
        1
 10
0.0
 20
0.0
450
        0
451
        0
460
0.0
461
0.0
452
        0
462
0.0
453
        0
470

  0
SPLINE
  5
82
330
79
100
AcDbEntity
  8
Ebene 1
100
AcDbSpline
210
0.0
220
0.0
230
1.0
 70
     9
 71
     3
 72
    38
 73
    34
 74
     0
 42
0.0000000001
 43
0.0000000001
 40
0.0
 40
0.0
 40
0.0
 40
0.0
 40
1.0
 40
1.0
 40
1.0
 40
2.0
 40
2.0
 40
2.0
 40
3.0
 40
3.0
 40
3.0
 40
4.0
 40
4.0
 40
4.0
 40
5.0
 40
5.0
 40
5.0
 40
6.0
 40
6.0
 40
6.0
 40
7.0
 40
7.0
 40
7.0
 40
8.0
 40
8.0
 40
8.0
 40
9.0
 40
9.0
 40
9.0
 40
10.0
 40
10.0
 40
10.0
 40
11.0
 40
11.0
 40
11.0
 40
11.0
 10
5.022963787835648
 20
-2.349801520498082
 30
0.0
 10
5.022963787835648
 20
-2.447632384880904
 30
0.0
 10
5.032658738360303
 20
-2.524751309507601
 30
0.0
 10
5.052048639408971
 20
-2.581158294377213
 30
0.0
 10
5.07143854045796
 20
-2.637565279247145
 30
0.0
 10
5.104489508155253
 20
-2.684497653376731
 30
0.0
 10
5.151201542499889
 20
-2.721955416766933
 30
0.0
 10
5.197913576845488
 20
-2.759413180156814
 30
0.0
 10
5.253879882145519
 20
-2.778142061851594
 30
0.0
 10
5.31910045840159
 20
-2.778142061851594
 30
0.0
 10
5.427507632447583
 20
-2.778142061851594
 30
0.0
 10
5.525779176400305
 20
-2.721735076982303
 30
0.0
 10
5.613915090259113
 20
-2.60892110724276
 30
0.0
 10
5.732017214829762
 20
-2.459090053682593
 30
0.0
 10
5.791068277114926
 20
-2.274004634579481
 30
0.0
 10
5.791068277114926
 20
-2.053664849932461
 30
0.0
 10
5.791068277114926
 20
-1.942613598469952
 30
0.0
 10
5.761983425541924
 20
-1.855799723319241
 30
0.0
 10
5.703813722395277
 20
-1.793223224479366
 30
0.0
 10
5.64564401924831
 20
-1.73064672563949
 30
0.0
 10
5.572491210745583
 20
-1.699358476219873
 30
0.0
 10
5.484355296886453
 20
-1.699358476219873
 30
0.0
 10
5.427066952878646
 20
-1.699358476219873
 30
0.0
 10
5.374846423916671
 20
-1.712138183729339
 30
0.0
 10
5.327693710002777
 20
-1.737697598748913
 30
0.0
 10
5.280540996088562
 20
-1.763257013767204
 30
0.0
 10
5.233828961742963
 20
-1.806663951343041
 30
0.0
 10
5.187557606966945
 20
-1.867918411474819
 30
0.0
 10
5.141286252191247
 20
-1.929172871606277
 30
0.0
 10
5.102286110308639
 20
-2.006952815586863
 30
0.0
 10
5.070557181319442
 20
-2.101258243415935
 30
0.0
 10
5.038828252330567
 20
-2.195563671245007
 30
0.0
 10
5.022963787835648
 20
-2.27841143027239
 30
0.0
 10
5.022963787835648
 20
-2.349801520498082
 30
0.0
  0
SPLINE
  5
83
330
79
100
AcDbEntity
  8
Ebene 1
100
AcDbSpline
210
0.0
220
0.0
230
1.0
 70
     9
 71
     3
 72
    41
 73
    37
 74
     0
 42
0.0000000001
 43
0.0000000001
 40
0.0
 40
0.0
 40
0.0
 40
0.0
 40
1.0
 40
1.0
 40
1.0
 40
2.0
 40
2.0
 40
2.0
 40
3.0
 40
3.0
 40
3.0
 40
4.0
 40
4.0
 40
4.0
 40
5.0
 40
5.0
 40
5.0
 40
6.0
 40
6.0
 40
6.0
 40
7.0
 40
7.0
 40
7.0
 40
8.0
 40
8.0
 40
8.0
 40
9.0
 40
9.0
 40
9.0
 40
10.0
 40
10.0
 40
10.0
 40
11.0
 40
11.0
 40
11.0
 40
12.0
 40
12.0
 40
12.0
 40
12.0
 10
5.678694986945603
 20
-2.73451478449177
 30
0.0
 10
5.542084320464162
 20
-2.891396711160076
 30
0.0
 10
5.399304140013098
 20
-2.96983767449455
 30
0.0
 10
5.250354445591129
 20
-2.96983767449455
 30
0.0
 10
5.11726921566472
 20
-2.96983767449455
 30
0.0
 10
5.006438303987161
 20
-2.92070190251835
 30
0.0
 10
4.917861710559416
 20
-2.822430358565948
 30
0.0
 10
4.829285117131028
 20
-2.724158814613227
 30
0.0
 10
4.784996820416673
 20
-2.581598973946471
 30
0.0
 10
4.784996820416673
 20
-2.394750836566004
 30
0.0
 10
4.784996820416673
 20
-2.223767163679813
 30
0.0
 10
4.820030846175952
 20
-2.067546256365074
 30
0.0
 10
4.890098897693547
 20
-1.926088114621466
 30
0.0
 10
4.960166949211784
 20
-1.784629972878178
 30
0.0
 10
5.047862183500692
 20
-1.678646536463108
 30
0.0
 10
5.153184600562195
 20
-1.608137805375933
 30
0.0
 10
5.258507017623378
 20
-1.537629074288758
 30
0.0
 10
5.364049774469511
 20
-1.502374708745171
 30
0.0
 10
5.469812871099631
 20
-1.502374708745171
 30
0.0
 10
5.644321980540213
 20
-1.502374708745171
 30
0.0
 10
5.776085171759166
 20
-1.586544506480329
 30
0.0
 10
5.865102444756492
 20
-1.754884101950967
 30
0.0
 10
5.865102444756492
 20
-1.754884101950967
 30
0.0
 10
6.023747089702474
 20
-0.9999999997500935
 30
0.0
 10
6.023747089702474
 20
-0.9999999997500935
 30
0.0
 10
6.023747089702474
 20
-0.9999999997500935
 30
0.0
 10
6.261714057121449
 20
-0.9999999997500935
 30
0.0
 10
6.261714057121449
 20
-0.9999999997500935
 30
0.0
 10
6.261714057121449
 20
-0.9999999997500935
 30
0.0
 10
5.857170212509192
 20
-2.938108745505674
 30
0.0
 10
5.857170212509192
 20
-2.938108745505674
 30
0.0
 10
5.857170212509192
 20
-2.938108745505674
 30
0.0
 10
5.636389748292914
 20
-2.938108745505674
 30
0.0
 10
5.636389748292914
 20
-2.938108745505674
 30
0.0
 10
5.636389748292914
 20
-2.938108745505674
 30
0.0
 10
5.678694986945603
 20
-2.73451478449177
 30
0.0
 10
5.678694986945603
 20
-2.73451478449177
 30
0.0
  0
HATCH
  5
84
330
79
100
AcDbEntity
  8
Ebene 1
 62
   250
420
  1907995
440
 33554687
100
AcDbHatch
 10
0.0
 20
0.0
 30
0.0
210
0.0
220
0.0
230
1.0
  2
SOLID
 70
     1
 71
     1
 91
        2
 92
        1
 93
        1
 72
     4
 94
        3
 73
     0
 74
     0
 95
       38
 96
       34
 40
0.0
 40
0.0
 40
0.0
 40
0.0
 40
1.0
 40
1.0
 40
1.0
 40
2.0
 40
2.0
 40
2.0
 40
3.0
 40
3.0
 40
3.0
 40
4.0
 40
4.0
 40
4.0
 40
5.0
 40
5.0
 40
5.0
 40
6.0
 40
6.0
 40
6.0
 40
7.0
 40
7.0
 40
7.0
 40
8.0
 40
8.0
 40
8.0
 40
9.0
 40
9.0
 40
9.0
 40
10.0
 40
10.0
 40
10.0
 40
11.0
 40
11.0
 40
11.0
 40
11.0
 10
5.022963787835648
 20
-2.349801520498082
 10
5.022963787835648
 20
-2.447632384880904
 10
5.032658738360303
 20
-2.524751309507601
 10
5.052048639408971
 20
-2.581158294377213
 10
5.07143854045796
 20
-2.637565279247145
 10
5.104489508155253
 20
-2.684497653376731
 10
5.151201542499889
 20
-2.721955416766933
 10
5.197913576845488
 20
-2.759413180156814
 10
5.253879882145519
 20
-2.778142061851594
 10
5.31910045840159
 20
-2.778142061851594
 10
5.427507632447583
 20
-2.778142061851594
 10
5.525779176400305
 20
-2.721735076982303
 10
5.613915090259113
 20
-2.60892110724276
 10
5.732017214829762
 20
-2.459090053682593
 10
5.791068277114926
 20
-2.274004634579481
 10
5.791068277114926
 20
-2.053664849932461
 10
5.791068277114926
 20
-1.942613598469952
 10
5.761983425541924
 20
-1.855799723319241
 10
5.703813722395277
 20
-1.793223224479366
 10
5.64564401924831
 20
-1.73064672563949
 10
5.572491210745583
 20
-1.699358476219873
 10
5.484355296886453
 20
-1.699358476219873
 10
5.427066952878646
 20
-1.699358476219873
 10
5.374846423916671
 20
-1.712138183729339
 10
5.327693710002777
 20
-1.737697598748913
 10
5.280540996088562
 20
-1.763257013767204
 10
5.233828961742963
 20
-1.806663951343041
 10
5.187557606966945
 20
-1.867918411474819
 10
5.141286252191247
 20
-1.929172871606277
 10
5.102286110308639
 20
-2.006952815586863
 10
5.070557181319442
 20
-2.101258243415935
 10
5.038828252330567
 20
-2.195563671245007
 10
5.022963787835648
 20
-2.27841143027239
 10
5.022963787835648
 20
-2.349801520498082
 97
        0
 97
        1
330
82
 92
        1
 93
        1
 72
     4
 94
        3
 73
     0
 74
     0
 95
       41
 96
       37
 40
0.0
 40
0.0
 40
0.0
 40
0.0
 40
1.0
 40
1.0
 40
1.0
 40
2.0
 40
2.0
 40
2.0
 40
3.0
 40
3.0
 40
3.0
 40
4.0
 40
4.0
 40
4.0
 40
5.0
 40
5.0
 40
5.0
 40
6.0
 40
6.0
 40
6.0
 40
7.0
 40
7.0
 40
7.0
 40
8.0
 40
8.0
 40
8.0
 40
9.0
 40
9.0
 40
9.0
 40
10.0
 40
10.0
 40
10.0
 40
11.0
 40
11.0
 40
11.0
 40
12.0
 40
12.0
 40
12.0
 40
12.0
 10
5.678694986945603
 20
-2.73451478449177
 10
5.542084320464162
 20
-2.891396711160076
 10
5.399304140013098
 20
-2.96983767449455
 10
5.250354445591129
 20
-2.96983767449455
 10
5.11726921566472
 20
-2.96983767449455
 10
5.006438303987161
 20
-2.92070190251835
 10
4.917861710559416
 20
-2.822430358565948
 10
4.829285117131028
 20
-2.724158814613227
 10
4.784996820416673
 20
-2.581598973946471
 10
4.784996820416673
 20
-2.394750836566004
 10
4.784996820416673
 20
-2.223767163679813
 10
4.820030846175952
 20
-2.067546256365074
 10
4.890098897693547
 20
-1.926088114621466
 10
4.960166949211784
 20
-1.784629972878178
 10
5.047862183500692
 20
-1.678646536463108
 10
5.153184600562195
 20
-1.608137805375933
 10
5.258507017623378
 20
-1.537629074288758
 10
5.364049774469511
 20
-1.502374708745171
 10
5.469812871099631
 20
-1.502374708745171
 10
5.644321980540213
 20
-1.502374708745171
 10
5.776085171759166
 20
-1.586544506480329
 10
5.865102444756492
 20
-1.754884101950967
 10
5.865102444756492
 20
-1.754884101950967
 10
6.023747089702474
 20
-0.9999999997500935
 10
6.023747089702474
 20
-0.9999999997500935
 10
6.023747089702474
 20
-0.9999999997500935
 10
6.261714057121449
 20
-0.9999999997500935
 10
6.261714057121449
 20
-0.9999999997500935
 10
6.261714057121449
 20
-0.9999999997500935
 10
5.857170212509192
 20
-2.938108745505674
 10
5.857170212509192
 20
-2.938108745505674
 10
5.857170212509192
 20
-2.938108745505674
 10
5.636389748292914
 20
-2.938108745505674
 10
5.636389748292914
 20
-2.938108745505674
 10
5.636389748292914
 20
-2.938108745505674
 10
5.678694986945603
 20
-2.73451478449177
 10
5.678694986945603
 20
-2.73451478449177
 97
        0
 97
        1
330
83
 75
     2
 76
     1
 98
        1
 10
0.0
 20
0.0
450
        0
451
        0
460
0.0
461
0.0
452
        0
462
0.0
453
        0
470

  0
SPLINE
  5
85
330
79
100
AcDbEntity
  8
Ebene 1
100
AcDbSpline
210
0.0
220
0.0
230
1.0
 70
     9
 71
     3
 72
    23
 73
    19
 74
     0
 42
0.0000000001
 43
0.0000000001
 40
0.0
 40
0.0
 40
0.0
 40
0.0
 40
1.0
 40
1.0
 40
1.0
 40
2.0
 40
2.0
 40
2.0
 40
3.0
 40
3.0
 40
3.0
 40
4.0
 40
4.0
 40
4.0
 40
5.0
 40
5.0
 40
5.0
 40
6.0
 40
6.0
 40
6.0
 40
6.0
 10
6.573715192181347
 20
-2.113156591786884
 30
0.0
 10
6.573715192181347
 20
-2.113156591786884
 30
0.0
 10
7.361650262079515
 20
-2.113156591786884
 30
0.0
 10
7.361650262079515
 20
-2.113156591786884
 30
0.0
 10
7.362531621218032
 20
-2.088478535906148
 30
0.0
 10
7.362972300787291
 20
-2.070851353134515
 30
0.0
 10
7.362972300787291
 20
-2.060275043471663
 30
0.0
 10
7.362972300787291
 20
-1.940410200623659
 30
0.0
 10
7.333006090075129
 20
-1.848528510425509
 30
0.0
 10
7.273073668651448
 20
-1.784629972878178
 30
0.0
 10
7.213141247227125
 20
-1.720731435330526
 30
0.0
 10
7.136022322600748
 20
-1.688782166556701
 30
0.0
 10
7.041716894771676
 20
-1.688782166556701
 30
0.0
 10
6.939479234695625
 20
-1.688782166556701
 30
0.0
 10
6.8462755057897
 20
-1.724036532100288
 30
0.0
 10
6.762105708055183
 20
-1.794545263187463
 30
0.0
 10
6.677935910319383
 20
-1.865053994274317
 30
0.0
 10
6.615139071694878
 20
-1.971257770474017
 30
0.0
 10
6.573715192181347
 20
-2.113156591786884
 30
0.0
  0
SPLINE
  5
86
330
79
100
AcDbEntity
  8
Ebene 1
100
AcDbSpline
210
0.0
220
0.0
230
1.0
 70
     9
 71
     3
 72
    59
 73
    55
 74
     0
 42
0.0000000001
 43
0.0000000001
 40
0.0
 40
0.0
 40
0.0
 40
0.0
 40
1.0
 40
1.0
 40
1.0
 40
2.0
 40
2.0
 40
2.0
 40
3.0
 40
3.0
 40
3.0
 40
4.0
 40
4.0
 40
4.0
 40
5.0
 40
5.0
 40
5.0
 40
6.0
 40
6.0
 40
6.0
 40
7.0
 40
7.0
 40
7.0
 40
8.0
 40
8.0
 40
8.0
 40
9.0
 40
9.0
 40
9.0
 40
10.0
 40
10.0
 40
10.0
 40
11.0
 40
11.0
 40
11.0
 40
12.0
 40
12.0
 40
12.0
 40
13.0
 40
13.0
 40
13.0
 40
14.0
 40
14.0
 40
14.0
 40
15.0
 40
15.0
 40
15.0
 40
16.0
 40
16.0
 40
16.0
 40
17.0
 40
17.0
 40
17.0
 40
18.0
 40
18.0
 40
18.0
 40
18.0
 10
7.269107552527477
 20
-2.460852771959949
 30
0.0
 10
7.269107552527477
 20
-2.460852771959949
 30
0.0
 10
7.501786365114705
 20
-2.484649468701526
 30
0.0
 10
7.501786365114705
 20
-2.484649468701526
 30
0.0
 10
7.468294717848474
 20
-2.600107515856622
 30
0.0
 10
7.391396133007047
 20
-2.709836728610713
 30
0.0
 10
7.271090610589463
 20
-2.81383710696444
 30
0.0
 10
7.150785088171878
 20
-2.917837485318167
 30
0.0
 10
7.007343888366927
 20
-2.96983767449455
 30
0.0
 10
6.840767011173644
 20
-2.96983767449455
 30
0.0
 10
6.736766632820559
 20
-2.96983767449455
 30
0.0
 10
6.641359506068661
 20
-2.945820637968344
 30
0.0
 10
6.554545630916988
 20
-2.897786564914969
 30
0.0
 10
6.467731755766276
 20
-2.849752491861916
 30
0.0
 10
6.40162982037233
 20
-2.77990478012895
 30
0.0
 10
6.35623982473483
 20
-2.68824342971543
 30
0.0
 10
6.310849829097649
 20
-2.596582079302552
 30
0.0
 10
6.288154831278899
 20
-2.492141021379887
 30
0.0
 10
6.288154831278899
 20
-2.374920255947756
 30
0.0
 10
6.288154831278899
 20
-2.221563765833199
 30
0.0
 10
6.323629536607115
 20
-2.0728344111965
 30
0.0
 10
6.394578947263228
 20
-1.928732192037019
 30
0.0
 10
6.465528357919661
 20
-1.784629972878178
 30
0.0
 10
6.55741004811749
 20
-1.67754483753964
 30
0.0
 10
6.670224017856713
 20
-1.607476786021724
 30
0.0
 10
6.783037987596578
 20
-1.53740873450445
 30
0.0
 10
6.905106228290876
 20
-1.502374708745171
 30
0.0
 10
7.03642873994057
 20
-1.502374708745171
 30
0.0
 10
7.203886976272049
 20
-1.502374708745171
 30
0.0
 10
7.337633225552667
 20
-1.554374897922195
 30
0.0
 10
7.437667487782745
 20
-1.65837527627528
 30
0.0
 10
7.537701750012181
 20
-1.762375654629007
 30
0.0
 10
7.587718881127219
 20
-1.904274475941554
 30
0.0
 10
7.587718881127219
 20
-2.084071740213561
 30
0.0
 10
7.587718881127219
 20
-2.1528177530237
 30
0.0
 10
7.581549367156634
 20
-2.223326484110234
 30
0.0
 10
7.569210339217069
 20
-2.295597933475085
 30
0.0
 10
7.569210339217069
 20
-2.295597933475085
 30
0.0
 10
6.535376069652948
 20
-2.295597933475085
 30
0.0
 10
6.535376069652948
 20
-2.295597933475085
 30
0.0
 10
6.531850633098878
 20
-2.322920066770732
 30
0.0
 10
6.530087914821201
 20
-2.347598122650826
 30
0.0
 10
6.530087914821201
 20
-2.369632101116009
 30
0.0
 10
6.530087914821201
 20
-2.500954612765704
 30
0.0
 10
6.560274465318314
 20
-2.60120921478009
 30
0.0
 10
6.620647566311895
 20
-2.670395907158847
 30
0.0
 10
6.681020667305157
 20
-2.739582599538887
 30
0.0
 10
6.754834495161451
 20
-2.774175945727944
 30
0.0
 10
6.842089049881741
 20
-2.774175945727944
 30
0.0
 10
6.924055449770285
 20
-2.774175945727944
 30
0.0
 10
7.004699810951374
 20
-2.747294492001236
 30
0.0
 10
7.084022133424045
 20
-2.693531584547177
 30
0.0
 10
7.163344455897357
 20
-2.639768677093439
 30
0.0
 10
7.225039595598394
 20
-2.562209072897803
 30
0.0
 10
7.269107552527477
 20
-2.460852771959949
 30
0.0
  0
HATCH
  5
87
330
79
100
AcDbEntity
  8
Ebene 1
 62
   250
420
  1907995
440
 33554687
100
AcDbHatch
 10
0.0
 20
0.0
 30
0.0
210
0.0
220
0.0
230
1.0
  2
SOLID
 70
     1
 71
     1
 91
        2
 92
        1
 93
        1
 72
     4
 94
        3
 73
     0
 74
     0
 95
       23
 96
       19
 40
0.0
 40
0.0
 40
0.0
 40
0.0
 40
1.0
 40
1.0
 40
1.0
 40
2.0
 40
2.0
 40
2.0
 40
3.0
 40
3.0
 40
3.0
 40
4.0
 40
4.0
 40
4.0
 40
5.0
 40
5.0
 40
5.0
 40
6.0
 40
6.0
 40
6.0
 40
6.0
 10
6.573715192181347
 20
-2.113156591786884
 10
6.573715192181347
 20
-2.113156591786884
 10
7.361650262079515
 20
-2.113156591786884
 10
7.361650262079515
 20
-2.113156591786884
 10
7.362531621218032
 20
-2.088478535906148
 10
7.362972300787291
 20
-2.070851353134515
 10
7.362972300787291
 20
-2.060275043471663
 10
7.362972300787291
 20
-1.940410200623659
 10
7.333006090075129
 20
-1.848528510425509
 10
7.273073668651448
 20
-1.784629972878178
 10
7.213141247227125
 20
-1.720731435330526
 10
7.136022322600748
 20
-1.688782166556701
 10
7.041716894771676
 20
-1.688782166556701
 10
6.939479234695625
 20
-1.688782166556701
 10
6.8462755057897
 20
-1.724036532100288
 10
6.762105708055183
 20
-1.794545263187463
 10
6.677935910319383
 20
-1.865053994274317
 10
6.615139071694878
 20
-1.971257770474017
 10
6.573715192181347
 20
-2.113156591786884
 97
        0
 97
        1
330
85
 92
        1
 93
        1
 72
     4
 94
        3
 73
     0
 74
     0
 95
       59
 96
       55
 40
0.0
 40
0.0
 40
0.0
 40
0.0
 40
1.0
 40
1.0
 40
1.0
 40
2.0
 40
2.0
 40
2.0
 40
3.0
 40
3.0
 40
3.0
 40
4.0
 40
4.0
 40
4.0
 40
5.0
 40
5.0
 40
5.0
 40
6.0
 40
6.0
 40
6.0
 40
7.0
 40
7.0
 40
7.0
 40
8.0
 40
8.0
 40
8.0
 40
9.0
 40
9.0
 40
9.0
 40
10.0
 40
10.0
 40
10.0
 40
11.0
 40
11.0
 40
11.0
 40
12.0
 40
12.0
 40
12.0
 40
13.0
 40
13.0
 40
13.0
 40
14.0
 40
14.0
 40
14.0
 40
15.0
 40
15.0
 40
15.0
 40
16.0
 40
16.0
 40
16.0
 40
17.0
 40
17.0
 40
17.0
 40
18.0
 40
18.0
 40
18.0
 40
18.0
 10
7.269107552527477
 20
-2.460852771959949
 10
7.269107552527477
 20
-2.460852771959949
 10
7.501786365114705
 20
-2.484649468701526
 10
7.501786365114705
 20
-2.484649468701526
 10
7.468294717848474
 20
-2.600107515856622
 10
7.391396133007047
 20
-2.709836728610713
 10
7.271090610589463
 20
-2.81383710696444
 10
7.150785088171878
 20
-2.917837485318167
 10
7.007343888366927
 20
-2.96983767449455
 10
6.840767011173644
 20
-2.96983767449455
 10
6.736766632820559
 20
-2.96983767449455
 10
6.641359506068661
 20
-2.945820637968344
 10
6.554545630916988
 20
-2.897786564914969
 10
6.467731755766276
 20
-2.849752491861916
 10
6.40162982037233
 20
-2.77990478012895
 10
6.35623982473483
 20
-2.68824342971543
 10
6.310849829097649
 20
-2.596582079302552
 10
6.288154831278899
 20
-2.492141021379887
 10
6.288154831278899
 20
-2.374920255947756
 10
6.288154831278899
 20
-2.221563765833199
 10
6.323629536607115
 20
-2.0728344111965
 10
6.394578947263228
 20
-1.928732192037019
 10
6.465528357919661
 20
-1.784629972878178
 10
6.55741004811749
 20
-1.67754483753964
 10
6.670224017856713
 20
-1.607476786021724
 10
6.783037987596578
 20
-1.53740873450445
 10
6.905106228290876
 20
-1.502374708745171
 10
7.03642873994057
 20
-1.502374708745171
 10
7.203886976272049
 20
-1.502374708745171
 10
7.337633225552667
 20
-1.554374897922195
 10
7.437667487782745
 20
-1.65837527627528
 10
7.537701750012181
 20
-1.762375654629007
 10
7.587718881127219
 20
-1.904274475941554
 10
7.587718881127219
 20
-2.084071740213561
 10
7.587718881127219
 20
-2.1528177530237
 10
7.581549367156634
 20
-2.223326484110234
 10
7.569210339217069
 20
-2.295597933475085
 10
7.569210339217069
 20
-2.295597933475085
 10
6.535376069652948
 20
-2.295597933475085
 10
6.535376069652948
 20
-2.295597933475085
 10
6.531850633098878
 20
-2.322920066770732
 10
6.530087914821201
 20
-2.347598122650826
 10
6.530087914821201
 20
-2.369632101116009
 10
6.530087914821201
 20
-2.500954612765704
 10
6.560274465318314
 20
-2.60120921478009
 10
6.620647566311895
 20
-2.670395907158847
 10
6.681020667305157
 20
-2.739582599538887
 10
6.754834495161451
 20
-2.774175945727944
 10
6.842089049881741
 20
-2.774175945727944
 10
6.924055449770285
 20
-2.774175945727944
 10
7.004699810951374
 20
-2.747294492001236
 10
7.084022133424045
 20
-2.693531584547177
 10
7.163344455897357
 20
-2.639768677093439
 10
7.225039595598394
 20
-2.562209072897803
 10
7.269107552527477
 20
-2.460852771959949
 97
        0
 97
        1
330
86
 75
     2
 76
     1
 98
        1
 10
0.0
 20
0.0
450
        0
451
        0
460
0.0
461
0.0
452
        0
462
0.0
453
        0
470

  0
SPLINE
  5
88
330
79
100
AcDbEntity
  8
Ebene 1
100
AcDbSpline
210
0.0
220
0.0
230
1.0
 70
    11
 71
     3
 72
    17
 73
    13
 74
     0
 42
0.0000000001
 43
0.0000000001
 40
0.0
 40
0.0
 40
0.0
 40
0.0
 40
1.0
 40
1.0
 40
1.0
 40
2.0
 40
2.0
 40
2.0
 40
3.0
 40
3.0
 40
3.0
 40
4.0
 40
4.0
 40
4.0
 40
4.0
 10
8.835723421368095
 20
-1.27101793486604
 30
0.0
 10
8.835723421368095
 20
-1.27101793486604
 30
0.0
 10
8.892571085806645
 20
-0.9999999997500935
 30
0.0
 10
8.892571085806645
 20
-0.9999999997500935
 30
0.0
 10
8.892571085806645
 20
-0.9999999997500935
 30
0.0
 10
9.13053805322562
 20
-0.9999999997500935
 30
0.0
 10
9.13053805322562
 20
-0.9999999997500935
 30
0.0
 10
9.13053805322562
 20
-0.9999999997500935
 30
0.0
 10
9.073690388786749
 20
-1.27101793486604
 30
0.0
 10
9.073690388786749
 20
-1.27101793486604
 30
0.0
 10
9.073690388786749
 20
-1.27101793486604
 30
0.0
 10
8.835723421368095
 20
-1.27101793486604
 30
0.0
 10
8.835723421368095
 20
-1.27101793486604
 30
0.0
  0
SPLINE
  5
89
330
79
100
AcDbEntity
  8
Ebene 1
100
AcDbSpline
210
0.0
220
0.0
230
1.0
 70
    11
 71
     3
 72
    17
 73
    13
 74
     0
 42
0.0000000001
 43
0.0000000001
 40
0.0
 40
0.0
 40
0.0
 40
0.0
 40
1.0
 40
1.0
 40
1.0
 40
2.0
 40
2.0
 40
2.0
 40
3.0
 40
3.0
 40
3.0
 40
4.0
 40
4.0
 40
4.0
 40
4.0
 10
8.486705202487254
 20
-2.938108745505674
 30
0.0
 10
8.486705202487254
 20
-2.938108745505674
 30
0.0
 10
8.780197795637002
 20
-1.534103637734688
 30
0.0
 10
8.780197795637002
 20
-1.534103637734688
 30
0.0
 10
8.780197795637002
 20
-1.534103637734688
 30
0.0
 10
9.019486801763431
 20
-1.534103637734688
 30
0.0
 10
9.019486801763431
 20
-1.534103637734688
 30
0.0
 10
9.019486801763431
 20
-1.534103637734688
 30
0.0
 10
8.725994208613684
 20
-2.938108745505674
 30
0.0
 10
8.725994208613684
 20
-2.938108745505674
 30
0.0
 10
8.725994208613684
 20
-2.938108745505674
 30
0.0
 10
8.486705202487254
 20
-2.938108745505674
 30
0.0
 10
8.486705202487254
 20
-2.938108745505674
 30
0.0
  0
HATCH
  5
8A
330
79
100
AcDbEntity
  8
Ebene 1
 62
   250
420
  1907995
440
 33554687
100
AcDbHatch
 10
0.0
 20
0.0
 30
0.0
210
0.0
220
0.0
230
1.0
  2
SOLID
 70
     1
 71
     1
 91
        2
 92
        1
 93
        1
 72
     4
 94
        3
 73
     0
 74
     0
 95
       17
 96
       13
 40
0.0
 40
0.0
 40
0.0
 40
0.0
 40
1.0
 40
1.0
 40
1.0
 40
2.0
 40
2.0
 40
2.0
 40
3.0
 40
3.0
 40
3.0
 40
4.0
 40
4.0
 40
4.0
 40
4.0
 10
8.835723421368095
 20
-1.27101793486604
 10
8.835723421368095
 20
-1.27101793486604
 10
8.892571085806645
 20
-0.9999999997500935
 10
8.892571085806645
 20
-0.9999999997500935
 10
8.892571085806645
 20
-0.9999999997500935
 10
9.13053805322562
 20
-0.9999999997500935
 10
9.13053805322562
 20
-0.9999999997500935
 10
9.13053805322562
 20
-0.9999999997500935
 10
9.073690388786749
 20
-1.27101793486604
 10
9.073690388786749
 20
-1.27101793486604
 10
9.073690388786749
 20
-1.27101793486604
 10
8.835723421368095
 20
-1.27101793486604
 10
8.835723421368095
 20
-1.27101793486604
 97
        0
 97
        1
330
88
 92
        1
 93
        1
 72
     4
 94
        3
 73
     0
 74
     0
 95
       17
 96
       13
 40
0.0
 40
0.0
 40
0.0
 40
0.0
 40
1.0
 40
1.0
 40
1.0
 40
2.0
 40
2.0
 40
2.0
 40
3.0
 40
3.0
 40
3.0
 40
4.0
 40
4.0
 40
4.0
 40
4.0
 10
8.486705202487254
 20
-2.938108745505674
 10
8.486705202487254
 20
-2.938108745505674
 10
8.780197795637002
 20
-1.534103637734688
 10
8.780197795637002
 20
-1.534103637734688
 10
8.780197795637002
 20
-1.534103637734688
 10
9.019486801763431
 20
-1.534103637734688
 10
9.019486801763431
 20
-1.534103637734688
 10
9.019486801763431
 20
-1.534103637734688
 10
8.725994208613684
 20
-2.938108745505674
 10
8.725994208613684
 20
-2.938108745505674
 10
8.725994208613684
 20
-2.938108745505674
 10
8.486705202487254
 20
-2.938108745505674
 10
8.486705202487254
 20
-2.938108745505674
 97
        0
 97
        1
330
89
 75
     2
 76
     1
 98
        1
 10
0.0
 20
0.0
450
        0
451
        0
460
0.0
461
0.0
452
        0
462
0.0
453
        0
470

  0
SPLINE
  5
8B
330
79
100
AcDbEntity
  8
Ebene 1
100
AcDbSpline
210
0.0
220
0.0
230
1.0
 70
    11
 71
     3
 72
    59
 73
    55
 74
     0
 42
0.0000000001
 43
0.0000000001
 40
0.0
 40
0.0
 40
0.0
 40
0.0
 40
1.0
 40
1.0
 40
1.0
 40
2.0
 40
2.0
 40
2.0
 40
3.0
 40
3.0
 40
3.0
 40
4.0
 40
4.0
 40
4.0
 40
5.0
 40
5.0
 40
5.0
 40
6.0
 40
6.0
 40
6.0
 40
7.0
 40
7.0
 40
7.0
 40
8.0
 40
8.0
 40
8.0
 40
9.0
 40
9.0
 40
9.0
 40
10.0
 40
10.0
 40
10.0
 40
11.0
 40
11.0
 40
11.0
 40
12.0
 40
12.0
 40
12.0
 40
13.0
 40
13.0
 40
13.0
 40
14.0
 40
14.0
 40
14.0
 40
15.0
 40
15.0
 40
15.0
 40
16.0
 40
16.0
 40
16.0
 40
17.0
 40
17.0
 40
17.0
 40
18.0
 40
18.0
 40
18.0
 40
18.0
 10
9.097487085528646
 20
-2.938108745505674
 30
0.0
 10
9.097487085528646
 20
-2.938108745505674
 30
0.0
 10
9.390979678678716
 20
-1.534103637734688
 30
0.0
 10
9.390979678678716
 20
-1.534103637734688
 30
0.0
 10
9.390979678678716
 20
-1.534103637734688
 30
0.0
 10
9.607794026771665
 20
-1.534103637734688
 30
0.0
 10
9.607794026771665
 20
-1.534103637734688
 30
0.0
 10
9.607794026771665
 20
-1.534103637734688
 30
0.0
 10
9.5562345171639
 20
-1.778680798692544
 30
0.0
 10
9.5562345171639
 20
-1.778680798692544
 30
0.0
 10
9.650539944992651
 20
-1.682612652586757
 30
0.0
 10
9.738675858851459
 20
-1.612544601069162
 30
0.0
 10
9.820642258740324
 20
-1.568476644139437
 30
0.0
 10
9.902608658628869
 20
-1.524408687210033
 30
0.0
 10
9.986337776795089
 20
-1.502374708745171
 30
0.0
 10
10.07182961323802
 20
-1.502374708745171
 30
0.0
 10
10.18552494211544
 20
-1.502374708745171
 30
0.0
 10
10.2747625548974
 20
-1.533222278596171
 30
0.0
 10
10.33954245158389
 20
-1.594917418297208
 30
0.0
 10
10.40432234827038
 20
-1.656612557998566
 30
0.0
 10
10.43671229661346
 20
-1.739019637456369
 30
0.0
 10
10.43671229661346
 20
-1.842138656670937
 30
0.0
 10
10.43671229661346
 20
-1.894138845847961
 30
0.0
 10
10.42525462781145
 20
-1.976105245736505
 30
0.0
 10
10.40233929020807
 20
-2.088037856336889
 30
0.0
 10
10.40233929020807
 20
-2.088037856336889
 30
0.0
 10
10.22386406464416
 20
-2.938108745505674
 30
0.0
 10
10.22386406464416
 20
-2.938108745505674
 30
0.0
 10
10.22386406464416
 20
-2.938108745505674
 30
0.0
 10
9.984575058517412
 20
-2.938108745505674
 30
0.0
 10
9.984575058517412
 20
-2.938108745505674
 30
0.0
 10
9.984575058517412
 20
-2.938108745505674
 30
0.0
 10
10.17098251632894
 20
-2.048376695100394
 30
0.0
 10
10.17098251632894
 20
-2.048376695100394
 30
0.0
 10
10.18949105823909
 20
-1.962003499519262
 30
0.0
 10
10.19874532919481
 20
-1.898104961971611
 30
0.0
 10
10.19874532919481
 20
-1.856681082457759
 30
0.0
 10
10.19874532919481
 20
-1.809969048112481
 30
0.0
 10
10.18266052491526
 20
-1.772070605153342
 30
0.0
 10
10.1504909163568
 20
-1.742985753579698
 30
0.0
 10
10.11832130779803
 20
-1.713900902006374
 30
0.0
 10
10.07182961323802
 20
-1.699358476219873
 30
0.0
 10
10.01101583267518
 20
-1.699358476219873
 30
0.0
 10
9.888506912411626
 20
-1.699358476219873
 30
0.0
 10
9.779438719011423
 20
-1.743426433148956
 30
0.0
 10
9.683811252474574
 20
-1.831562347008406
 30
0.0
 10
9.588183785938047
 20
-1.919698260866893
 30
0.0
 10
9.51789539463518
 20
-2.070851353134515
 30
0.0
 10
9.472946078567259
 20
-2.285021623811592
 30
0.0
 10
9.472946078567259
 20
-2.285021623811592
 30
0.0
 10
9.336776091655076
 20
-2.938108745505674
 30
0.0
 10
9.336776091655076
 20
-2.938108745505674
 30
0.0
 10
9.336776091655076
 20
-2.938108745505674
 30
0.0
 10
9.097487085528646
 20
-2.938108745505674
 30
0.0
 10
9.097487085528646
 20
-2.938108745505674
 30
0.0
  0
HATCH
  5
8C
330
79
100
AcDbEntity
  8
Ebene 1
 62
   250
420
  1907995
440
 33554687
100
AcDbHatch
 10
0.0
 20
0.0
 30
0.0
210
0.0
220
0.0
230
1.0
  2
SOLID
 70
     1
 71
     1
 91
        1
 92
        1
 93
        1
 72
     4
 94
        3
 73
     0
 74
     0
 95
       59
 96
       55
 40
0.0
 40
0.0
 40
0.0
 40
0.0
 40
1.0
 40
1.0
 40
1.0
 40
2.0
 40
2.0
 40
2.0
 40
3.0
 40
3.0
 40
3.0
 40
4.0
 40
4.0
 40
4.0
 40
5.0
 40
5.0
 40
5.0
 40
6.0
 40
6.0
 40
6.0
 40
7.0
 40
7.0
 40
7.0
 40
8.0
 40
8.0
 40
8.0
 40
9.0
 40
9.0
 40
9.0
 40
10.0
 40
10.0
 40
10.0
 40
11.0
 40
11.0
 40
11.0
 40
12.0
 40
12.0
 40
12.0
 40
13.0
 40
13.0
 40
13.0
 40
14.0
 40
14.0
 40
14.0
 40
15.0
 40
15.0
 40
15.0
 40
16.0
 40
16.0
 40
16.0
 40
17.0
 40
17.0
 40
17.0
 40
18.0
 40
18.0
 40
18.0
 40
18.0
 10
9.097487085528646
 20
-2.938108745505674
 10
9.097487085528646
 20
-2.938108745505674
 10
9.390979678678716
 20
-1.534103637734688
 10
9.390979678678716
 20
-1.534103637734688
 10
9.390979678678716
 20
-1.534103637734688
 10
9.607794026771665
 20
-1.534103637734688
 10
9.607794026771665
 20
-1.534103637734688
 10
9.607794026771665
 20
-1.534103637734688
 10
9.5562345171639
 20
-1.778680798692544
 10
9.5562345171639
 20
-1.778680798692544
 10
9.650539944992651
 20
-1.682612652586757
 10
9.738675858851459
 20
-1.612544601069162
 10
9.820642258740324
 20
-1.568476644139437
 10
9.902608658628869
 20
-1.524408687210033
 10
9.986337776795089
 20
-1.502374708745171
 10
10.07182961323802
 20
-1.502374708745171
 10
10.18552494211544
 20
-1.502374708745171
 10
10.2747625548974
 20
-1.533222278596171
 10
10.33954245158389
 20
-1.594917418297208
 10
10.40432234827038
 20
-1.656612557998566
 10
10.43671229661346
 20
-1.739019637456369
 10
10.43671229661346
 20
-1.842138656670937
 10
10.43671229661346
 20
-1.894138845847961
 10
10.42525462781145
 20
-1.976105245736505
 10
10.40233929020807
 20
-2.088037856336889
 10
10.40233929020807
 20
-2.088037856336889
 10
10.22386406464416
 20
-2.938108745505674
 10
10.22386406464416
 20
-2.938108745505674
 10
10.22386406464416
 20
-2.938108745505674
 10
9.984575058517412
 20
-2.938108745505674
 10
9.984575058517412
 20
-2.938108745505674
 10
9.984575058517412
 20
-2.938108745505674
 10
10.17098251632894
 20
-2.048376695100394
 10
10.17098251632894
 20
-2.048376695100394
 10
10.18949105823909
 20
-1.962003499519262
 10
10.19874532919481
 20
-1.898104961971611
 10
10.19874532919481
 20
-1.856681082457759
 10
10.19874532919481
 20
-1.809969048112481
 10
10.18266052491526
 20
-1.772070605153342
 10
10.1504909163568
 20
-1.742985753579698
 10
10.11832130779803
 20
-1.713900902006374
 10
10.07182961323802
 20
-1.699358476219873
 10
10.01101583267518
 20
-1.699358476219873
 10
9.888506912411626
 20
-1.699358476219873
 10
9.779438719011423
 20
-1.743426433148956
 10
9.683811252474574
 20
-1.831562347008406
 10
9.588183785938047
 20
-1.919698260866893
 10
9.51789539463518
 20
-2.070851353134515
 10
9.472946078567259
 20
-2.285021623811592
 10
9.472946078567259
 20
-2.285021623811592
 10
9.336776091655076
 20
-2.938108745505674
 10
9.336776091655076
 20
-2.938108745505674
 10
9.336776091655076
 20
-2.938108745505674
 10
9.097487085528646
 20
-2.938108745505674
 10
9.097487085528646
 20
-2.938108745505674
 97
        0
 97
        1
330
8B
 75
     2
 76
     1
 98
        1
 10
0.0
 20
0.0
450
        0
451
        0
460
0.0
461
0.0
452
        0
462
0.0
453
        0
470

  0
SPLINE
  5
8D
330
79
100
AcDbEntity
  8
Ebene 1
100
AcDbSpline
210
0.0
220
0.0
230
1.0
 70
    11
 71
     3
 72
    41
 73
    37
 74
     0
 42
0.0000000001
 43
0.0000000001
 40
0.0
 40
0.0
 40
0.0
 40
0.0
 40
1.0
 40
1.0
 40
1.0
 40
2.0
 40
2.0
 40
2.0
 40
3.0
 40
3.0
 40
3.0
 40
4.0
 40
4.0
 40
4.0
 40
5.0
 40
5.0
 40
5.0
 40
6.0
 40
6.0
 40
6.0
 40
7.0
 40
7.0
 40
7.0
 40
8.0
 40
8.0
 40
8.0
 40
9.0
 40
9.0
 40
9.0
 40
10.0
 40
10.0
 40
10.0
 40
11.0
 40
11.0
 40
11.0
 40
12.0
 40
12.0
 40
12.0
 40
12.0
 10
11.38725812758062
 20
-2.938108745505674
 30
0.0
 10
11.38725812758062
 20
-2.938108745505674
 30
0.0
 10
11.79312401090065
 20
-0.9999999997500935
 30
0.0
 10
11.79312401090065
 20
-0.9999999997500935
 30
0.0
 10
11.79312401090065
 20
-0.9999999997500935
 30
0.0
 10
13.19184096383989
 20
-0.9999999997500935
 30
0.0
 10
13.19184096383989
 20
-0.9999999997500935
 30
0.0
 10
13.19184096383989
 20
-0.9999999997500935
 30
0.0
 10
13.1455696090642
 20
-1.220780463966372
 30
0.0
 10
13.1455696090642
 20
-1.220780463966372
 30
0.0
 10
13.1455696090642
 20
-1.220780463966372
 30
0.0
 10
12.00597224286963
 20
-1.220780463966372
 30
0.0
 10
12.00597224286963
 20
-1.220780463966372
 30
0.0
 10
12.00597224286963
 20
-1.220780463966372
 30
0.0
 10
11.87905652691317
 20
-1.823630114760786
 30
0.0
 10
11.87905652691317
 20
-1.823630114760786
 30
0.0
 10
11.87905652691317
 20
-1.823630114760786
 30
0.0
 10
12.98956904153376
 20
-1.823630114760786
 30
0.0
 10
12.98956904153376
 20
-1.823630114760786
 30
0.0
 10
12.98956904153376
 20
-1.823630114760786
 30
0.0
 10
12.94329768675775
 20
-2.044410578977065
 30
0.0
 10
12.94329768675775
 20
-2.044410578977065
 30
0.0
 10
12.94329768675775
 20
-2.044410578977065
 30
0.0
 10
11.83278517213747
 20
-2.044410578977065
 30
0.0
 10
11.83278517213747
 20
-2.044410578977065
 30
0.0
 10
11.83278517213747
 20
-2.044410578977065
 30
0.0
 10
11.69264906910131
 20
-2.718650319997172
 30
0.0
 10
11.69264906910131
 20
-2.718650319997172
 30
0.0
 10
11.69264906910131
 20
-2.718650319997172
 30
0.0
 10
12.91289079647729
 20
-2.718650319997172
 30
0.0
 10
12.91289079647729
 20
-2.718650319997172
 30
0.0
 10
12.91289079647729
 20
-2.718650319997172
 30
0.0
 10
12.86661944170095
 20
-2.938108745505674
 30
0.0
 10
12.86661944170095
 20
-2.938108745505674
 30
0.0
 10
12.86661944170095
 20
-2.938108745505674
 30
0.0
 10
11.38725812758062
 20
-2.938108745505674
 30
0.0
 10
11.38725812758062
 20
-2.938108745505674
 30
0.0
  0
HATCH
  5
8E
330
79
100
AcDbEntity
  8
Ebene 1
 62
   250
420
  1907995
440
 33554687
100
AcDbHatch
 10
0.0
 20
0.0
 30
0.0
210
0.0
220
0.0
230
1.0
  2
SOLID
 70
     1
 71
     1
 91
        1
 92
        1
 93
        1
 72
     4
 94
        3
 73
     0
 74
     0
 95
       41
 96
       37
 40
0.0
 40
0.0
 40
0.0
 40
0.0
 40
1.0
 40
1.0
 40
1.0
 40
2.0
 40
2.0
 40
2.0
 40
3.0
 40
3.0
 40
3.0
 40
4.0
 40
4.0
 40
4.0
 40
5.0
 40
5.0
 40
5.0
 40
6.0
 40
6.0
 40
6.0
 40
7.0
 40
7.0
 40
7.0
 40
8.0
 40
8.0
 40
8.0
 40
9.0
 40
9.0
 40
9.0
 40
10.0
 40
10.0
 40
10.0
 40
11.0
 40
11.0
 40
11.0
 40
12.0
 40
12.0
 40
12.0
 40
12.0
 10
11.38725812758062
 20
-2.938108745505674
 10
11.38725812758062
 20
-2.938108745505674
 10
11.79312401090065
 20
-0.9999999997500935
 10
11.79312401090065
 20
-0.9999999997500935
 10
11.79312401090065
 20
-0.9999999997500935
 10
13.19184096383989
 20
-0.9999999997500935
 10
13.19184096383989
 20
-0.9999999997500935
 10
13.19184096383989
 20
-0.9999999997500935
 10
13.1455696090642
 20
-1.220780463966372
 10
13.1455696090642
 20
-1.220780463966372
 10
13.1455696090642
 20
-1.220780463966372
 10
12.00597224286963
 20
-1.220780463966372
 10
12.00597224286963
 20
-1.220780463966372
 10
12.00597224286963
 20
-1.220780463966372
 10
11.87905652691317
 20
-1.823630114760786
 10
11.87905652691317
 20
-1.823630114760786
 10
11.87905652691317
 20
-1.823630114760786
 10
12.98956904153376
 20
-1.823630114760786
 10
12.98956904153376
 20
-1.823630114760786
 10
12.98956904153376
 20
-1.823630114760786
 10
12.94329768675775
 20
-2.044410578977065
 10
12.94329768675775
 20
-2.044410578977065
 10
12.94329768675775
 20
-2.044410578977065
 10
11.83278517213747
 20
-2.044410578977065
 10
11.83278517213747
 20
-2.044410578977065
 10
11.83278517213747
 20
-2.044410578977065
 10
11.69264906910131
 20
-2.718650319997172
 10
11.69264906910131
 20
-2.718650319997172
 10
11.69264906910131
 20
-2.718650319997172
 10
12.91289079647729
 20
-2.718650319997172
 10
12.91289079647729
 20
-2.718650319997172
 10
12.91289079647729
 20
-2.718650319997172
 10
12.86661944170095
 20
-2.938108745505674
 10
12.86661944170095
 20
-2.938108745505674
 10
12.86661944170095
 20
-2.938108745505674
 10
11.38725812758062
 20
-2.938108745505674
 10
11.38725812758062
 20
-2.938108745505674
 97
        0
 97
        1
330
8D
 75
     2
 76
     1
 98
        1
 10
0.0
 20
0.0
450
        0
451
        0
460
0.0
461
0.0
452
        0
462
0.0
453
        0
470

  0
SPLINE
  5
8F
330
79
100
AcDbEntity
  8
Ebene 1
100
AcDbSpline
210
0.0
220
0.0
230
1.0
 70
    11
 71
     3
 72
    41
 73
    37
 74
     0
 42
0.0000000001
 43
0.0000000001
 40
0.0
 40
0.0
 40
0.0
 40
0.0
 40
1.0
 40
1.0
 40
1.0
 40
2.0
 40
2.0
 40
2.0
 40
3.0
 40
3.0
 40
3.0
 40
4.0
 40
4.0
 40
4.0
 40
5.0
 40
5.0
 40
5.0
 40
6.0
 40
6.0
 40
6.0
 40
7.0
 40
7.0
 40
7.0
 40
8.0
 40
8.0
 40
8.0
 40
9.0
 40
9.0
 40
9.0
 40
10.0
 40
10.0
 40
10.0
 40
11.0
 40
11.0
 40
11.0
 40
12.0
 40
12.0
 40
12.0
 40
12.0
 10
13.16143407355879
 20
-2.938108745505674
 30
0.0
 10
13.16143407355879
 20
-2.938108745505674
 30
0.0
 10
13.45492666670822
 20
-1.534103637734688
 30
0.0
 10
13.45492666670822
 20
-1.534103637734688
 30
0.0
 10
13.45492666670822
 20
-1.534103637734688
 30
0.0
 10
13.66645285996974
 20
-1.534103637734688
 30
0.0
 10
13.66645285996974
 20
-1.534103637734688
 30
0.0
 10
13.66645285996974
 20
-1.534103637734688
 30
0.0
 10
13.606961118115
 20
-1.820986037344913
 30
0.0
 10
13.606961118115
 20
-1.820986037344913
 30
0.0
 10
13.67923256747921
 20
-1.712578863298919
 30
0.0
 10
13.74996163835069
 20
-1.63237518168741
 30
0.0
 10
13.81914833073041
 20
-1.580374992510386
 30
0.0
 10
13.88833502310917
 20
-1.528374803333362
 30
0.0
 10
13.95906409398065
 20
-1.502374708745171
 30
0.0
 10
14.03133554334486
 20
-1.502374708745171
 30
0.0
 10
14.07892893682898
 20
-1.502374708745171
 30
0.0
 10
14.1375393195452
 20
-1.519561211947866
 30
0.0
 10
14.20716669149354
 20
-1.553934218352936
 30
0.0
 10
14.20716669149354
 20
-1.553934218352936
 30
0.0
 10
14.10933582711008
 20
-1.77603672127667
 30
0.0
 10
14.10933582711008
 20
-1.77603672127667
 30
0.0
 10
14.06791194759622
 20
-1.74607051056483
 30
0.0
 10
14.02252195195905
 20
-1.731087405208749
 30
0.0
 10
13.9731658401979
 20
-1.731087405208749
 30
0.0
 10
13.88943672203232
 20
-1.731087405208749
 30
0.0
 10
13.80350420602012
 20
-1.777799439554026
 30
0.0
 10
13.71536829216164
 20
-1.87122350824426
 30
0.0
 10
13.62723237830218
 20
-1.964647576934815
 30
0.0
 10
13.55804568592311
 20
-2.132546492836194
 30
0.0
 10
13.50780821502344
 20
-2.374920255947756
 30
0.0
 10
13.50780821502344
 20
-2.374920255947756
 30
0.0
 10
13.38882473131427
 20
-2.938108745505674
 30
0.0
 10
13.38882473131427
 20
-2.938108745505674
 30
0.0
 10
13.38882473131427
 20
-2.938108745505674
 30
0.0
 10
13.16143407355879
 20
-2.938108745505674
 30
0.0
 10
13.16143407355879
 20
-2.938108745505674
 30
0.0
  0
HATCH
  5
90
330
79
100
AcDbEntity
  8
Ebene 1
 62
   250
420
  1907995
440
 33554687
100
AcDbHatch
 10
0.0
 20
0.0
 30
0.0
210
0.0
220
0.0
230
1.0
  2
SOLID
 70
     1
 71
     1
 91
        1
 92
        1
 93
        1
 72
     4
 94
        3
 73
     0
 74
     0
 95
       41
 96
       37
 40
0.0
 40
0.0
 40
0.0
 40
0.0
 40
1.0
 40
1.0
 40
1.0
 40
2.0
 40
2.0
 40
2.0
 40
3.0
 40
3.0
 40
3.0
 40
4.0
 40
4.0
 40
4.0
 40
5.0
 40
5.0
 40
5.0
 40
6.0
 40
6.0
 40
6.0
 40
7.0
 40
7.0
 40
7.0
 40
8.0
 40
8.0
 40
8.0
 40
9.0
 40
9.0
 40
9.0
 40
10.0
 40
10.0
 40
10.0
 40
11.0
 40
11.0
 40
11.0
 40
12.0
 40
12.0
 40
12.0
 40
12.0
 10
13.16143407355879
 20
-2.938108745505674
 10
13.16143407355879
 20
-2.938108745505674
 10
13.45492666670822
 20
-1.534103637734688
 10
13.45492666670822
 20
-1.534103637734688
 10
13.45492666670822
 20
-1.534103637734688
 10
13.66645285996974
 20
-1.534103637734688
 10
13.66645285996974
 20
-1.534103637734688
 10
13.66645285996974
 20
-1.534103637734688
 10
13.606961118115
 20
-1.820986037344913
 10
13.606961118115
 20
-1.820986037344913
 10
13.67923256747921
 20
-1.712578863298919
 10
13.74996163835069
 20
-1.63237518168741
 10
13.81914833073041
 20
-1.580374992510386
 10
13.88833502310917
 20
-1.528374803333362
 10
13.95906409398065
 20
-1.502374708745171
 10
14.03133554334486
 20
-1.502374708745171
 10
14.07892893682898
 20
-1.502374708745171
 10
14.1375393195452
 20
-1.519561211947866
 10
14.20716669149354
 20
-1.553934218352936
 10
14.20716669149354
 20
-1.553934218352936
 10
14.10933582711008
 20
-1.77603672127667
 10
14.10933582711008
 20
-1.77603672127667
 10
14.06791194759622
 20
-1.74607051056483
 10
14.02252195195905
 20
-1.731087405208749
 10
13.9731658401979
 20
-1.731087405208749
 10
13.88943672203232
 20
-1.731087405208749
 10
13.80350420602012
 20
-1.777799439554026
 10
13.71536829216164
 20
-1.87122350824426
 10
13.62723237830218
 20
-1.964647576934815
 10
13.55804568592311
 20
-2.132546492836194
 10
13.50780821502344
 20
-2.374920255947756
 10
13.50780821502344
 20
-2.374920255947756
 10
13.38882473131427
 20
-2.938108745505674
 10
13.38882473131427
 20
-2.938108745505674
 10
13.38882473131427
 20
-2.938108745505674
 10
13.16143407355879
 20
-2.938108745505674
 10
13.16143407355879
 20
-2.938108745505674
 97
        0
 97
        1
330
8F
 75
     2
 76
     1
 98
        1
 10
0.0
 20
0.0
450
        0
451
        0
460
0.0
461
0.0
452
        0
462
0.0
453
        0
470

  0
SPLINE
  5
91
330
79
100
AcDbEntity
  8
Ebene 1
100
AcDbSpline
210
0.0
220
0.0
230
1.0
 70
    11
 71
     3
 72
    47
 73
    43
 74
     0
 42
0.0000000001
 43
0.0000000001
 40
0.0
 40
0.0
 40
0.0
 40
0.0
 40
1.0
 40
1.0
 40
1.0
 40
2.0
 40
2.0
 40
2.0
 40
3.0
 40
3.0
 40
3.0
 40
4.0
 40
4.0
 40
4.0
 40
5.0
 40
5.0
 40
5.0
 40
6.0
 40
6.0
 40
6.0
 40
7.0
 40
7.0
 40
7.0
 40
8.0
 40
8.0
 40
8.0
 40
9.0
 40
9.0
 40
9.0
 40
10.0
 40
10.0
 40
10.0
 40
11.0
 40
11.0
 40
11.0
 40
12.0
 40
12.0
 40
12.0
 40
13.0
 40
13.0
 40
13.0
 40
14.0
 40
14.0
 40
14.0
 40
14.0
 10
14.02604738851376
 20
-2.938108745505674
 30
0.0
 10
14.02604738851376
 20
-2.938108745505674
 30
0.0
 10
14.06438651104216
 20
-2.7530233264016
 30
0.0
 10
14.06438651104216
 20
-2.7530233264016
 30
0.0
 10
14.06438651104216
 20
-2.7530233264016
 30
0.0
 10
14.81927061324303
 20
-1.902952437233457
 30
0.0
 10
14.81927061324303
 20
-1.902952437233457
 30
0.0
 10
14.87303352069645
 20
-1.843020015809454
 30
0.0
 10
14.93296594212045
 20
-1.780884196539158
 30
0.0
 10
14.99906787751472
 20
-1.716544979422248
 30
0.0
 10
14.88537254863698
 20
-1.728002648223938
 30
0.0
 10
14.80384682831769
 20
-1.733731482624622
 30
0.0
 10
14.75449071655654
 20
-1.733731482624622
 30
0.0
 10
14.75449071655654
 20
-1.733731482624622
 30
0.0
 10
14.23228542694289
 20
-1.733731482624622
 30
0.0
 10
14.23228542694289
 20
-1.733731482624622
 30
0.0
 10
14.23228542694289
 20
-1.733731482624622
 30
0.0
 10
14.27459066559526
 20
-1.534103637734688
 30
0.0
 10
14.27459066559526
 20
-1.534103637734688
 30
0.0
 10
14.27459066559526
 20
-1.534103637734688
 30
0.0
 10
15.35998444476683
 20
-1.534103637734688
 30
0.0
 10
15.35998444476683
 20
-1.534103637734688
 30
0.0
 10
15.35998444476683
 20
-1.534103637734688
 30
0.0
 10
15.32825551577763
 20
-1.684816050433051
 30
0.0
 10
15.32825551577763
 20
-1.684816050433051
 30
0.0
 10
15.32825551577763
 20
-1.684816050433051
 30
0.0
 10
14.56676122003756
 20
-2.540175094432941
 30
0.0
 10
14.56676122003756
 20
-2.540175094432941
 30
0.0
 10
14.52357462224667
 20
-2.588649847055253
 30
0.0
 10
14.45923540512976
 20
-2.655192462018778
 30
0.0
 10
14.37374356868682
 20
-2.739802939323196
 30
0.0
 10
14.50682879861355
 20
-2.731870707075576
 30
0.0
 10
14.59804946945717
 20
-2.727904590951926
 30
0.0
 10
14.647405581218
 20
-2.727904590951926
 30
0.0
 10
14.647405581218
 20
-2.727904590951926
 30
0.0
 10
15.20001776111307
 20
-2.727904590951926
 30
0.0
 10
15.20001776111307
 20
-2.727904590951926
 30
0.0
 10
15.20001776111307
 20
-2.727904590951926
 30
0.0
 10
15.15639048375292
 20
-2.938108745505674
 30
0.0
 10
15.15639048375292
 20
-2.938108745505674
 30
0.0
 10
15.15639048375292
 20
-2.938108745505674
 30
0.0
 10
14.02604738851376
 20
-2.938108745505674
 30
0.0
 10
14.02604738851376
 20
-2.938108745505674
 30
0.0
  0
HATCH
  5
92
330
79
100
AcDbEntity
  8
Ebene 1
 62
   250
420
  1907995
440
 33554687
100
AcDbHatch
 10
0.0
 20
0.0
 30
0.0
210
0.0
220
0.0
230
1.0
  2
SOLID
 70
     1
 71
     1
 91
        1
 92
        1
 93
        1
 72
     4
 94
        3
 73
     0
 74
     0
 95
       47
 96
       43
 40
0.0
 40
0.0
 40
0.0
 40
0.0
 40
1.0
 40
1.0
 40
1.0
 40
2.0
 40
2.0
 40
2.0
 40
3.0
 40
3.0
 40
3.0
 40
4.0
 40
4.0
 40
4.0
 40
5.0
 40
5.0
 40
5.0
 40
6.0
 40
6.0
 40
6.0
 40
7.0
 40
7.0
 40
7.0
 40
8.0
 40
8.0
 40
8.0
 40
9.0
 40
9.0
 40
9.0
 40
10.0
 40
10.0
 40
10.0
 40
11.0
 40
11.0
 40
11.0
 40
12.0
 40
12.0
 40
12.0
 40
13.0
 40
13.0
 40
13.0
 40
14.0
 40
14.0
 40
14.0
 40
14.0
 10
14.02604738851376
 20
-2.938108745505674
 10
14.02604738851376
 20
-2.938108745505674
 10
14.06438651104216
 20
-2.7530233264016
 10
14.06438651104216
 20
-2.7530233264016
 10
14.06438651104216
 20
-2.7530233264016
 10
14.81927061324303
 20
-1.902952437233457
 10
14.81927061324303
 20
-1.902952437233457
 10
14.87303352069645
 20
-1.843020015809454
 10
14.93296594212045
 20
-1.780884196539158
 10
14.99906787751472
 20
-1.716544979422248
 10
14.88537254863698
 20
-1.728002648223938
 10
14.80384682831769
 20
-1.733731482624622
 10
14.75449071655654
 20
-1.733731482624622
 10
14.75449071655654
 20
-1.733731482624622
 10
14.23228542694289
 20
-1.733731482624622
 10
14.23228542694289
 20
-1.733731482624622
 10
14.23228542694289
 20
-1.733731482624622
 10
14.27459066559526
 20
-1.534103637734688
 10
14.27459066559526
 20
-1.534103637734688
 10
14.27459066559526
 20
-1.534103637734688
 10
15.35998444476683
 20
-1.534103637734688
 10
15.35998444476683
 20
-1.534103637734688
 10
15.35998444476683
 20
-1.534103637734688
 10
15.32825551577763
 20
-1.684816050433051
 10
15.32825551577763
 20
-1.684816050433051
 10
15.32825551577763
 20
-1.684816050433051
 10
14.56676122003756
 20
-2.540175094432941
 10
14.56676122003756
 20
-2.540175094432941
 10
14.52357462224667
 20
-2.588649847055253
 10
14.45923540512976
 20
-2.655192462018778
 10
14.37374356868682
 20
-2.739802939323196
 10
14.50682879861355
 20
-2.731870707075576
 10
14.59804946945717
 20
-2.727904590951926
 10
14.647405581218
 20
-2.727904590951926
 10
14.647405581218
 20
-2.727904590951926
 10
15.20001776111307
 20
-2.727904590951926
 10
15.20001776111307
 20
-2.727904590951926
 10
15.20001776111307
 20
-2.727904590951926
 10
15.15639048375292
 20
-2.938108745505674
 10
15.15639048375292
 20
-2.938108745505674
 10
15.15639048375292
 20
-2.938108745505674
 10
14.02604738851376
 20
-2.938108745505674
 10
14.02604738851376
 20
-2.938108745505674
 97
        0
 97
        1
330
91
 75
     2
 76
     1
 98
        1
 10
0.0
 20
0.0
450
        0
451
        0
460
0.0
461
0.0
452
        0
462
0.0
453
        0
470

  0
SPLINE
  5
93
330
79
100
AcDbEntity
  8
Ebene 1
100
AcDbSpline
210
0.0
220
0.0
230
1.0
 70
     9
 71
     3
 72
    41
 73
    37
 74
     0
 42
0.0000000001
 43
0.0000000001
 40
0.0
 40
0.0
 40
0.0
 40
0.0
 40
1.0
 40
1.0
 40
1.0
 40
2.0
 40
2.0
 40
2.0
 40
3.0
 40
3.0
 40
3.0
 40
4.0
 40
4.0
 40
4.0
 40
5.0
 40
5.0
 40
5.0
 40
6.0
 40
6.0
 40
6.0
 40
7.0
 40
7.0
 40
7.0
 40
8.0
 40
8.0
 40
8.0
 40
9.0
 40
9.0
 40
9.0
 40
10.0
 40
10.0
 40
10.0
 40
11.0
 40
11.0
 40
11.0
 40
12.0
 40
12.0
 40
12.0
 40
12.0
 10
15.70239247010847
 20
-2.316750552800789
 30
0.0
 10
15.70239247010847
 20
-2.412818698907537
 30
0.0
 10
15.71164674106322
 20
-2.485090148271106
 30
0.0
 10
15.73015528297401
 20
-2.533564900893739
 30
0.0
 10
15.75659605713114
 20
-2.60142955456504
 30
0.0
 10
15.79427416030597
 20
-2.653209403956793
 30
0.0
 10
15.84318959249787
 20
-2.688904449069639
 30
0.0
 10
15.89210502468912
 20
-2.724599494182164
 30
0.0
 10
15.94652895149739
 20
-2.742447016738748
 30
0.0
 10
16.00646137292107
 20
-2.742447016738748
 30
0.0
 10
16.08490233625554
 20
-2.742447016738748
 30
0.0
 10
16.16290262002076
 20
-2.714904543658472
 30
0.0
 10
16.24046222421639
 20
-2.659819597496316
 30
0.0
 10
16.31802182841235
 20
-2.604734651334481
 30
0.0
 10
16.38081866703653
 20
-2.519463154676175
 30
0.0
 10
16.42885274008959
 20
-2.404005107521079
 30
0.0
 10
16.47688681314232
 20
-2.288547060365983
 30
0.0
 10
16.50090384966917
 20
-2.178377168042954
 30
0.0
 10
16.50090384966917
 20
-2.073495430550388
 30
0.0
 10
16.50090384966917
 20
-1.958037383395613
 30
0.0
 10
16.46895458089534
 20
-1.866155693197464
 30
0.0
 10
16.40505604334769
 20
-1.797850359957224
 30
0.0
 10
16.34115750580036
 20
-1.729545026716343
 30
0.0
 10
16.262055523112
 20
-1.695392360096544
 30
0.0
 10
16.1677500952826
 20
-1.695392360096544
 30
0.0
 10
16.10958039213628
 20
-1.695392360096544
 30
0.0
 10
16.05317340726634
 20
-1.711036484806192
 30
0.0
 10
15.99852914067409
 20
-1.74232473422613
 30
0.0
 10
15.94388487408151
 20
-1.773612983646068
 30
0.0
 10
15.89298638382796
 20
-1.821206377129863
 30
0.0
 10
15.8458336699131
 20
-1.885104914677515
 30
0.0
 10
15.79868095599888
 20
-1.949003452224525
 30
0.0
 10
15.76298591088636
 20
-2.025461357497335
 30
0.0
 10
15.7387485345752
 20
-2.114478630495302
 30
0.0
 10
15.71451115826372
 20
-2.203495903491986
 30
0.0
 10
15.70239247010847
 20
-2.270919877594349
 30
0.0
 10
15.70239247010847
 20
-2.316750552800789
 30
0.0
  0
SPLINE
  5
94
330
79
100
AcDbEntity
  8
Ebene 1
100
AcDbSpline
210
0.0
220
0.0
230
1.0
 70
     9
 71
     3
 72
    77
 73
    73
 74
     0
 42
0.0000000001
 43
0.0000000001
 40
0.0
 40
0.0
 40
0.0
 40
0.0
 40
1.0
 40
1.0
 40
1.0
 40
2.0
 40
2.0
 40
2.0
 40
3.0
 40
3.0
 40
3.0
 40
4.0
 40
4.0
 40
4.0
 40
5.0
 40
5.0
 40
5.0
 40
6.0
 40
6.0
 40
6.0
 40
7.0
 40
7.0
 40
7.0
 40
8.0
 40
8.0
 40
8.0
 40
9.0
 40
9.0
 40
9.0
 40
10.0
 40
10.0
 40
10.0
 40
11.0
 40
11.0
 40
11.0
 40
12.0
 40
12.0
 40
12.0
 40
13.0
 40
13.0
 40
13.0
 40
14.0
 40
14.0
 40
14.0
 40
15.0
 40
15.0
 40
15.0
 40
16.0
 40
16.0
 40
16.0
 40
17.0
 40
17.0
 40
17.0
 40
18.0
 40
18.0
 40
18.0
 40
19.0
 40
19.0
 40
19.0
 40
20.0
 40
20.0
 40
20.0
 40
21.0
 40
21.0
 40
21.0
 40
22.0
 40
22.0
 40
22.0
 40
23.0
 40
23.0
 40
23.0
 40
24.0
 40
24.0
 40
24.0
 40
24.0
 10
15.40361172212697
 20
-3.065024461461819
 30
0.0
 10
15.40361172212697
 20
-3.065024461461819
 30
0.0
 10
15.64554480566927
 20
-3.08749911949594
 30
0.0
 10
15.64554480566927
 20
-3.08749911949594
 30
0.0
 10
15.64378208739192
 20
-3.142143386088837
 30
0.0
 10
15.65039228093144
 20
-3.183126586032789
 30
0.0
 10
15.66537538628752
 20
-3.210448719329077
 30
0.0
 10
15.6803584916436
 20
-3.237770852625686
 30
0.0
 10
15.7041551883855
 20
-3.25892347195171
 30
0.0
 10
15.73676547651354
 20
-3.273906577307149
 30
0.0
 10
15.77995207430442
 20
-3.293296478356138
 30
0.0
 10
15.83591837960413
 20
-3.302991428881114
 30
0.0
 10
15.90466439241427
 20
-3.302991428881114
 30
0.0
 10
16.04920729114301
 20
-3.302991428881114
 30
0.0
 10
16.15320766949578
 20
-3.265533665491233
 30
0.0
 10
16.21666552747417
 20
-3.19061813871115
 30
0.0
 10
16.25808940698834
 20
-3.140380667811482
 30
0.0
 10
16.29642852951674
 20
-3.031092134626649
 30
0.0
 10
16.33168289506001
 20
-2.862752539156011
 30
0.0
 10
16.33168289506001
 20
-2.862752539156011
 30
0.0
 10
16.35547959180223
 20
-2.749057210278271
 30
0.0
 10
16.35547959180223
 20
-2.749057210278271
 30
0.0
 10
16.231207953261
 20
-2.87509156709686
 30
0.0
 10
16.0990040824731
 20
-2.938108745505674
 30
0.0
 10
15.95886797943727
 20
-2.938108745505674
 30
0.0
 10
15.81696915812473
 20
-2.938108745505674
 30
0.0
 10
15.69820601420019
 20
-2.885888216544021
 30
0.0
 10
15.60257854766334
 20
-2.781447158621035
 30
0.0
 10
15.50695108112617
 20
-2.677006100698691
 30
0.0
 10
15.45913734785807
 20
-2.529158105200509
 30
0.0
 10
15.45913734785807
 20
-2.337903172127133
 30
0.0
 10
15.45913734785807
 20
-2.180139886319668
 30
0.0
 10
15.49681545103258
 20
-2.03515630802199
 30
0.0
 10
15.5721716573816
 20
-1.902952437233457
 30
0.0
 10
15.64752786373126
 20
-1.770748566445245
 30
0.0
 10
15.73720615608247
 20
-1.670934644000117
 30
0.0
 10
15.8412065344362
 20
-1.603510669898395
 30
0.0
 10
15.94520691278897
 20
-1.536086695796032
 30
0.0
 10
16.05229204812751
 20
-1.502374708745171
 30
0.0
 10
16.1624619404515
 20
-1.502374708745171
 30
0.0
 10
16.34666600041641
 20
-1.502374708745171
 30
0.0
 10
16.48856482172896
 20
-1.58962926346514
 30
0.0
 10
16.58815840438945
 20
-1.764138372905722
 30
0.0
 10
16.58815840438945
 20
-1.764138372905722
 30
0.0
 10
16.63575179787293
 20
-1.534103637734688
 30
0.0
 10
16.63575179787293
 20
-1.534103637734688
 30
0.0
 10
16.63575179787293
 20
-1.534103637734688
 30
0.0
 10
16.85521022338143
 20
-1.534103637734688
 30
0.0
 10
16.85521022338143
 20
-1.534103637734688
 30
0.0
 10
16.85521022338143
 20
-1.534103637734688
 30
0.0
 10
16.57229393989486
 20
-2.889193313313782
 30
0.0
 10
16.57229393989486
 20
-2.889193313313782
 30
0.0
 10
16.54144637004418
 20
-3.038143007735431
 30
0.0
 10
16.50090384966917
 20
-3.154262074244094
 30
0.0
 10
16.4506663787695
 20
-3.237550512841056
 30
0.0
 10
16.40042890787015
 20
-3.320838951437377
 30
0.0
 10
16.33058119613686
 20
-3.385398508338596
 30
0.0
 10
16.2411232435706
 20
-3.431229183545355
 30
0.0
 10
16.15166529100337
 20
-3.477059858752115
 30
0.0
 10
16.04832593200418
 20
-3.499975196355495
 30
0.0
 10
15.93110516657172
 20
-3.499975196355495
 30
0.0
 10
15.81829119683282
 20
-3.499975196355495
 30
0.0
 10
15.72112135180325
 20
-3.485432770568674
 30
0.0
 10
15.63959563148396
 20
-3.45634791899535
 30
0.0
 10
15.55806991116436
 20
-3.427263067422027
 30
0.0
 10
15.49725613060184
 20
-3.384737488985028
 30
0.0
 10
15.4571542897964
 20
-3.328771183684355
 30
0.0
 10
15.41705244899065
 20
-3.272804878384644
 30
0.0
 10
15.39700152858777
 20
-3.208686001052042
 30
0.0
 10
15.39700152858777
 20
-3.136414551687832
 30
0.0
 10
15.39700152858777
 20
-3.11438057322297
 30
0.0
 10
15.39920492643406
 20
-3.090583876481072
 30
0.0
 10
15.40361172212697
 20
-3.065024461461819
 30
0.0
  0
HATCH
  5
95
330
79
100
AcDbEntity
  8
Ebene 1
 62
   250
420
  1907995
440
 33554687
100
AcDbHatch
 10
0.0
 20
0.0
 30
0.0
210
0.0
220
0.0
230
1.0
  2
SOLID
 70
     1
 71
     1
 91
        2
 92
        1
 93
        1
 72
     4
 94
        3
 73
     0
 74
     0
 95
       41
 96
       37
 40
0.0
 40
0.0
 40
0.0
 40
0.0
 40
1.0
 40
1.0
 40
1.0
 40
2.0
 40
2.0
 40
2.0
 40
3.0
 40
3.0
 40
3.0
 40
4.0
 40
4.0
 40
4.0
 40
5.0
 40
5.0
 40
5.0
 40
6.0
 40
6.0
 40
6.0
 40
7.0
 40
7.0
 40
7.0
 40
8.0
 40
8.0
 40
8.0
 40
9.0
 40
9.0
 40
9.0
 40
10.0
 40
10.0
 40
10.0
 40
11.0
 40
11.0
 40
11.0
 40
12.0
 40
12.0
 40
12.0
 40
12.0
 10
15.70239247010847
 20
-2.316750552800789
 10
15.70239247010847
 20
-2.412818698907537
 10
15.71164674106322
 20
-2.485090148271106
 10
15.73015528297401
 20
-2.533564900893739
 10
15.75659605713114
 20
-2.60142955456504
 10
15.79427416030597
 20
-2.653209403956793
 10
15.84318959249787
 20
-2.688904449069639
 10
15.89210502468912
 20
-2.724599494182164
 10
15.94652895149739
 20
-2.742447016738748
 10
16.00646137292107
 20
-2.742447016738748
 10
16.08490233625554
 20
-2.742447016738748
 10
16.16290262002076
 20
-2.714904543658472
 10
16.24046222421639
 20
-2.659819597496316
 10
16.31802182841235
 20
-2.604734651334481
 10
16.38081866703653
 20
-2.519463154676175
 10
16.42885274008959
 20
-2.404005107521079
 10
16.47688681314232
 20
-2.288547060365983
 10
16.50090384966917
 20
-2.178377168042954
 10
16.50090384966917
 20
-2.073495430550388
 10
16.50090384966917
 20
-1.958037383395613
 10
16.46895458089534
 20
-1.866155693197464
 10
16.40505604334769
 20
-1.797850359957224
 10
16.34115750580036
 20
-1.729545026716343
 10
16.262055523112
 20
-1.695392360096544
 10
16.1677500952826
 20
-1.695392360096544
 10
16.10958039213628
 20
-1.695392360096544
 10
16.05317340726634
 20
-1.711036484806192
 10
15.99852914067409
 20
-1.74232473422613
 10
15.94388487408151
 20
-1.773612983646068
 10
15.89298638382796
 20
-1.821206377129863
 10
15.8458336699131
 20
-1.885104914677515
 10
15.79868095599888
 20
-1.949003452224525
 10
15.76298591088636
 20
-2.025461357497335
 10
15.7387485345752
 20
-2.114478630495302
 10
15.71451115826372
 20
-2.203495903491986
 10
15.70239247010847
 20
-2.270919877594349
 10
15.70239247010847
 20
-2.316750552800789
 97
        0
 97
        1
330
93
 92
        1
 93
        1
 72
     4
 94
        3
 73
     0
 74
     0
 95
       77
 96
       73
 40
0.0
 40
0.0
 40
0.0
 40
0.0
 40
1.0
 40
1.0
 40
1.0
 40
2.0
 40
2.0
 40
2.0
 40
3.0
 40
3.0
 40
3.0
 40
4.0
 40
4.0
 40
4.0
 40
5.0
 40
5.0
 40
5.0
 40
6.0
 40
6.0
 40
6.0
 40
7.0
 40
7.0
 40
7.0
 40
8.0
 40
8.0
 40
8.0
 40
9.0
 40
9.0
 40
9.0
 40
10.0
 40
10.0
 40
10.0
 40
11.0
 40
11.0
 40
11.0
 40
12.0
 40
12.0
 40
12.0
 40
13.0
 40
13.0
 40
13.0
 40
14.0
 40
14.0
 40
14.0
 40
15.0
 40
15.0
 40
15.0
 40
16.0
 40
16.0
 40
16.0
 40
17.0
 40
17.0
 40
17.0
 40
18.0
 40
18.0
 40
18.0
 40
19.0
 40
19.0
 40
19.0
 40
20.0
 40
20.0
 40
20.0
 40
21.0
 40
21.0
 40
21.0
 40
22.0
 40
22.0
 40
22.0
 40
23.0
 40
23.0
 40
23.0
 40
24.0
 40
24.0
 40
24.0
 40
24.0
 10
15.40361172212697
 20
-3.065024461461819
 10
15.40361172212697
 20
-3.065024461461819
 10
15.64554480566927
 20
-3.08749911949594
 10
15.64554480566927
 20
-3.08749911949594
 10
15.64378208739192
 20
-3.142143386088837
 10
15.65039228093144
 20
-3.183126586032789
 10
15.66537538628752
 20
-3.210448719329077
 10
15.6803584916436
 20
-3.237770852625686
 10
15.7041551883855
 20
-3.25892347195171
 10
15.73676547651354
 20
-3.273906577307149
 10
15.77995207430442
 20
-3.293296478356138
 10
15.83591837960413
 20
-3.302991428881114
 10
15.90466439241427
 20
-3.302991428881114
 10
16.04920729114301
 20
-3.302991428881114
 10
16.15320766949578
 20
-3.265533665491233
 10
16.21666552747417
 20
-3.19061813871115
 10
16.25808940698834
 20
-3.140380667811482
 10
16.29642852951674
 20
-3.031092134626649
 10
16.33168289506001
 20
-2.862752539156011
 10
16.33168289506001
 20
-2.862752539156011
 10
16.35547959180223
 20
-2.749057210278271
 10
16.35547959180223
 20
-2.749057210278271
 10
16.231207953261
 20
-2.87509156709686
 10
16.0990040824731
 20
-2.938108745505674
 10
15.95886797943727
 20
-2.938108745505674
 10
15.81696915812473
 20
-2.938108745505674
 10
15.69820601420019
 20
-2.885888216544021
 10
15.60257854766334
 20
-2.781447158621035
 10
15.50695108112617
 20
-2.677006100698691
 10
15.45913734785807
 20
-2.529158105200509
 10
15.45913734785807
 20
-2.337903172127133
 10
15.45913734785807
 20
-2.180139886319668
 10
15.49681545103258
 20
-2.03515630802199
 10
15.5721716573816
 20
-1.902952437233457
 10
15.64752786373126
 20
-1.770748566445245
 10
15.73720615608247
 20
-1.670934644000117
 10
15.8412065344362
 20
-1.603510669898395
 10
15.94520691278897
 20
-1.536086695796032
 10
16.05229204812751
 20
-1.502374708745171
 10
16.1624619404515
 20
-1.502374708745171
 10
16.34666600041641
 20
-1.502374708745171
 10
16.48856482172896
 20
-1.58962926346514
 10
16.58815840438945
 20
-1.764138372905722
 10
16.58815840438945
 20
-1.764138372905722
 10
16.63575179787293
 20
-1.534103637734688
 10
16.63575179787293
 20
-1.534103637734688
 10
16.63575179787293
 20
-1.534103637734688
 10
16.85521022338143
 20
-1.534103637734688
 10
16.85521022338143
 20
-1.534103637734688
 10
16.85521022338143
 20
-1.534103637734688
 10
16.57229393989486
 20
-2.889193313313782
 10
16.57229393989486
 20
-2.889193313313782
 10
16.54144637004418
 20
-3.038143007735431
 10
16.50090384966917
 20
-3.154262074244094
 10
16.4506663787695
 20
-3.237550512841056
 10
16.40042890787015
 20
-3.320838951437377
 10
16.33058119613686
 20
-3.385398508338596
 10
16.2411232435706
 20
-3.431229183545355
 10
16.15166529100337
 20
-3.477059858752115
 10
16.04832593200418
 20
-3.499975196355495
 10
15.93110516657172
 20
-3.499975196355495
 10
15.81829119683282
 20
-3.499975196355495
 10
15.72112135180325
 20
-3.485432770568674
 10
15.63959563148396
 20
-3.45634791899535
 10
15.55806991116436
 20
-3.427263067422027
 10
15.49725613060184
 20
-3.384737488985028
 10
15.4571542897964
 20
-3.328771183684355
 10
15.41705244899065
 20
-3.272804878384644
 10
15.39700152858777
 20
-3.208686001052042
 10
15.39700152858777
 20
-3.136414551687832
 10
15.39700152858777
 20
-3.11438057322297
 10
15.39920492643406
 20
-3.090583876481072
 10
15.40361172212697
 20
-3.065024461461819
 97
        0
 97
        1
330
94
 75
     2
 76
     1
 98
        1
 10
0.0
 20
0.0
450
        0
451
        0
460
0.0
461
0.0
452
        0
462
0.0
453
        0
470

  0
SPLINE
  5
96
330
79
100
AcDbEntity
  8
Ebene 1
100
AcDbSpline
210
0.0
220
0.0
230
1.0
 70
     9
 71
     3
 72
    23
 73
    19
 74
     0
 42
0.0000000001
 43
0.0000000001
 40
0.0
 40
0.0
 40
0.0
 40
0.0
 40
1.0
 40
1.0
 40
1.0
 40
2.0
 40
2.0
 40
2.0
 40
3.0
 40
3.0
 40
3.0
 40
4.0
 40
4.0
 40
4.0
 40
5.0
 40
5.0
 40
5.0
 40
6.0
 40
6.0
 40
6.0
 40
6.0
 10
17.25843202928559
 20
-2.113156591786884
 30
0.0
 10
17.25843202928559
 20
-2.113156591786884
 30
0.0
 10
18.04636709918344
 20
-2.113156591786884
 30
0.0
 10
18.04636709918344
 20
-2.113156591786884
 30
0.0
 10
18.04724845832196
 20
-2.088478535906148
 30
0.0
 10
18.04768913789154
 20
-2.070851353134515
 30
0.0
 10
18.04768913789154
 20
-2.060275043471663
 30
0.0
 10
18.04768913789154
 20
-1.940410200623659
 30
0.0
 10
18.01772292717938
 20
-1.848528510425509
 30
0.0
 10
17.95779050575505
 20
-1.784629972878178
 30
0.0
 10
17.89785808433137
 20
-1.720731435330526
 30
0.0
 10
17.82073915970499
 20
-1.688782166556701
 30
0.0
 10
17.72643373187624
 20
-1.688782166556701
 30
0.0
 10
17.62419607179987
 20
-1.688782166556701
 30
0.0
 10
17.53099234289394
 20
-1.724036532100288
 30
0.0
 10
17.44682254515879
 20
-1.794545263187463
 30
0.0
 10
17.36265274742395
 20
-1.865053994274317
 30
0.0
 10
17.29985590879945
 20
-1.971257770474017
 30
0.0
 10
17.25843202928559
 20
-2.113156591786884
 30
0.0
  0
SPLINE
  5
97
330
79
100
AcDbEntity
  8
Ebene 1
100
AcDbSpline
210
0.0
220
0.0
230
1.0
 70
     9
 71
     3
 72
    59
 73
    55
 74
     0
 42
0.0000000001
 43
0.0000000001
 40
0.0
 40
0.0
 40
0.0
 40
0.0
 40
1.0
 40
1.0
 40
1.0
 40
2.0
 40
2.0
 40
2.0
 40
3.0
 40
3.0
 40
3.0
 40
4.0
 40
4.0
 40
4.0
 40
5.0
 40
5.0
 40
5.0
 40
6.0
 40
6.0
 40
6.0
 40
7.0
 40
7.0
 40
7.0
 40
8.0
 40
8.0
 40
8.0
 40
9.0
 40
9.0
 40
9.0
 40
10.0
 40
10.0
 40
10.0
 40
11.0
 40
11.0
 40
11.0
 40
12.0
 40
12.0
 40
12.0
 40
13.0
 40
13.0
 40
13.0
 40
14.0
 40
14.0
 40
14.0
 40
15.0
 40
15.0
 40
15.0
 40
16.0
 40
16.0
 40
16.0
 40
17.0
 40
17.0
 40
17.0
 40
18.0
 40
18.0
 40
18.0
 40
18.0
 10
17.95382438963172
 20
-2.460852771959949
 30
0.0
 10
17.95382438963172
 20
-2.460852771959949
 30
0.0
 10
18.18650320221863
 20
-2.484649468701526
 30
0.0
 10
18.18650320221863
 20
-2.484649468701526
 30
0.0
 10
18.1530115549524
 20
-2.600107515856622
 30
0.0
 10
18.07611297011065
 20
-2.709836728610713
 30
0.0
 10
17.95580744769338
 20
-2.81383710696444
 30
0.0
 10
17.83550192527612
 20
-2.917837485318167
 30
0.0
 10
17.69206072547117
 20
-2.96983767449455
 30
0.0
 10
17.52548384827789
 20
-2.96983767449455
 30
0.0
 10
17.42148346992448
 20
-2.96983767449455
 30
0.0
 10
17.32607634317227
 20
-2.945820637968344
 30
0.0
 10
17.23926246802123
 20
-2.897786564914969
 30
0.0
 10
17.1524485928702
 20
-2.849752491861916
 30
0.0
 10
17.08634665747658
 20
-2.77990478012895
 30
0.0
 10
17.0409566618394
 20
-2.68824342971543
 30
0.0
 10
16.99556666620157
 20
-2.596582079302552
 30
0.0
 10
16.97287166838314
 20
-2.492141021379887
 30
0.0
 10
16.97287166838314
 20
-2.374920255947756
 30
0.0
 10
16.97287166838314
 20
-2.221563765833199
 30
0.0
 10
17.00834637371104
 20
-2.0728344111965
 30
0.0
 10
17.0792957843678
 20
-1.928732192037019
 30
0.0
 10
17.15024519502391
 20
-1.784629972878178
 30
0.0
 10
17.24212688522142
 20
-1.67754483753964
 30
0.0
 10
17.35494085496128
 20
-1.607476786021724
 30
0.0
 10
17.4677548247005
 20
-1.53740873450445
 30
0.0
 10
17.58982306539448
 20
-1.502374708745171
 30
0.0
 10
17.72114557704449
 20
-1.502374708745171
 30
0.0
 10
17.88860381337597
 20
-1.502374708745171
 30
0.0
 10
18.02235006265691
 20
-1.554374897922195
 30
0.0
 10
18.12238432488699
 20
-1.65837527627528
 30
0.0
 10
18.22241858711643
 20
-1.762375654629007
 30
0.0
 10
18.27243571823147
 20
-1.904274475941554
 30
0.0
 10
18.27243571823147
 20
-2.084071740213561
 30
0.0
 10
18.27243571823147
 20
-2.1528177530237
 30
0.0
 10
18.2662662042612
 20
-2.223326484110234
 30
0.0
 10
18.25392717632099
 20
-2.295597933475085
 30
0.0
 10
18.25392717632099
 20
-2.295597933475085
 30
0.0
 10
17.22009290675719
 20
-2.295597933475085
 30
0.0
 10
17.22009290675719
 20
-2.295597933475085
 30
0.0
 10
17.21656747020248
 20
-2.322920066770732
 30
0.0
 10
17.21480475192545
 20
-2.347598122650826
 30
0.0
 10
17.21480475192545
 20
-2.369632101116009
 30
0.0
 10
17.21480475192545
 20
-2.500954612765704
 30
0.0
 10
17.24499130242224
 20
-2.60120921478009
 30
0.0
 10
17.3053644034155
 20
-2.670395907158847
 30
0.0
 10
17.36573750440876
 20
-2.739582599538887
 30
0.0
 10
17.43955133226538
 20
-2.774175945727944
 30
0.0
 10
17.52680588698567
 20
-2.774175945727944
 30
0.0
 10
17.60877228687453
 20
-2.774175945727944
 30
0.0
 10
17.6894166480553
 20
-2.747294492001236
 30
0.0
 10
17.76873897052861
 20
-2.693531584547177
 30
0.0
 10
17.84806129300128
 20
-2.639768677093439
 30
0.0
 10
17.90975643270232
 20
-2.562209072897803
 30
0.0
 10
17.95382438963172
 20
-2.460852771959949
 30
0.0
  0
HATCH
  5
98
330
79
100
AcDbEntity
  8
Ebene 1
 62
   250
420
  1907995
440
 33554687
100
AcDbHatch
 10
0.0
 20
0.0
 30
0.0
210
0.0
220
0.0
230
1.0
  2
SOLID
 70
     1
 71
     1
 91
        2
 92
        1
 93
        1
 72
     4
 94
        3
 73
     0
 74
     0
 95
       23
 96
       19
 40
0.0
 40
0.0
 40
0.0
 40
0.0
 40
1.0
 40
1.0
 40
1.0
 40
2.0
 40
2.0
 40
2.0
 40
3.0
 40
3.0
 40
3.0
 40
4.0
 40
4.0
 40
4.0
 40
5.0
 40
5.0
 40
5.0
 40
6.0
 40
6.0
 40
6.0
 40
6.0
 10
17.25843202928559
 20
-2.113156591786884
 10
17.25843202928559
 20
-2.113156591786884
 10
18.04636709918344
 20
-2.113156591786884
 10
18.04636709918344
 20
-2.113156591786884
 10
18.04724845832196
 20
-2.088478535906148
 10
18.04768913789154
 20
-2.070851353134515
 10
18.04768913789154
 20
-2.060275043471663
 10
18.04768913789154
 20
-1.940410200623659
 10
18.01772292717938
 20
-1.848528510425509
 10
17.95779050575505
 20
-1.784629972878178
 10
17.89785808433137
 20
-1.720731435330526
 10
17.82073915970499
 20
-1.688782166556701
 10
17.72643373187624
 20
-1.688782166556701
 10
17.62419607179987
 20
-1.688782166556701
 10
17.53099234289394
 20
-1.724036532100288
 10
17.44682254515879
 20
-1.794545263187463
 10
17.36265274742395
 20
-1.865053994274317
 10
17.29985590879945
 20
-1.971257770474017
 10
17.25843202928559
 20
-2.113156591786884
 97
        0
 97
        1
330
96
 92
        1
 93
        1
 72
     4
 94
        3
 73
     0
 74
     0
 95
       59
 96
       55
 40
0.0
 40
0.0
 40
0.0
 40
0.0
 40
1.0
 40
1.0
 40
1.0
 40
2.0
 40
2.0
 40
2.0
 40
3.0
 40
3.0
 40
3.0
 40
4.0
 40
4.0
 40
4.0
 40
5.0
 40
5.0
 40
5.0
 40
6.0
 40
6.0
 40
6.0
 40
7.0
 40
7.0
 40
7.0
 40
8.0
 40
8.0
 40
8.0
 40
9.0
 40
9.0
 40
9.0
 40
10.0
 40
10.0
 40
10.0
 40
11.0
 40
11.0
 40
11.0
 40
12.0
 40
12.0
 40
12.0
 40
13.0
 40
13.0
 40
13.0
 40
14.0
 40
14.0
 40
14.0
 40
15.0
 40
15.0
 40
15.0
 40
16.0
 40
16.0
 40
16.0
 40
17.0
 40
17.0
 40
17.0
 40
18.0
 40
18.0
 40
18.0
 40
18.0
 10
17.95382438963172
 20
-2.460852771959949
 10
17.95382438963172
 20
-2.460852771959949
 10
18.18650320221863
 20
-2.484649468701526
 10
18.18650320221863
 20
-2.484649468701526
 10
18.1530115549524
 20
-2.600107515856622
 10
18.07611297011065
 20
-2.709836728610713
 10
17.95580744769338
 20
-2.81383710696444
 10
17.83550192527612
 20
-2.917837485318167
 10
17.69206072547117
 20
-2.96983767449455
 10
17.52548384827789
 20
-2.96983767449455
 10
17.42148346992448
 20
-2.96983767449455
 10
17.32607634317227
 20
-2.945820637968344
 10
17.23926246802123
 20
-2.897786564914969
 10
17.1524485928702
 20
-2.849752491861916
 10
17.08634665747658
 20
-2.77990478012895
 10
17.0409566618394
 20
-2.68824342971543
 10
16.99556666620157
 20
-2.596582079302552
 10
16.97287166838314
 20
-2.492141021379887
 10
16.97287166838314
 20
-2.374920255947756
 10
16.97287166838314
 20
-2.221563765833199
 10
17.00834637371104
 20
-2.0728344111965
 10
17.0792957843678
 20
-1.928732192037019
 10
17.15024519502391
 20
-1.784629972878178
 10
17.24212688522142
 20
-1.67754483753964
 10
17.35494085496128
 20
-1.607476786021724
 10
17.4677548247005
 20
-1.53740873450445
 10
17.58982306539448
 20
-1.502374708745171
 10
17.72114557704449
 20
-1.502374708745171
 10
17.88860381337597
 20
-1.502374708745171
 10
18.02235006265691
 20
-1.554374897922195
 10
18.12238432488699
 20
-1.65837527627528
 10
18.22241858711643
 20
-1.762375654629007
 10
18.27243571823147
 20
-1.904274475941554
 10
18.27243571823147
 20
-2.084071740213561
 10
18.27243571823147
 20
-2.1528177530237
 10
18.2662662042612
 20
-2.223326484110234
 10
18.25392717632099
 20
-2.295597933475085
 10
18.25392717632099
 20
-2.295597933475085
 10
17.22009290675719
 20
-2.295597933475085
 10
17.22009290675719
 20
-2.295597933475085
 10
17.21656747020248
 20
-2.322920066770732
 10
17.21480475192545
 20
-2.347598122650826
 10
17.21480475192545
 20
-2.369632101116009
 10
17.21480475192545
 20
-2.500954612765704
 10
17.24499130242224
 20
-2.60120921478009
 10
17.3053644034155
 20
-2.670395907158847
 10
17.36573750440876
 20
-2.739582599538887
 10
17.43955133226538
 20
-2.774175945727944
 10
17.52680588698567
 20
-2.774175945727944
 10
17.60877228687453
 20
-2.774175945727944
 10
17.6894166480553
 20
-2.747294492001236
 10
17.76873897052861
 20
-2.693531584547177
 10
17.84806129300128
 20
-2.639768677093439
 10
17.90975643270232
 20
-2.562209072897803
 10
17.95382438963172
 20
-2.460852771959949
 97
        0
 97
        1
330
97
 75
     2
 76
     1
 98
        1
 10
0.0
 20
0.0
450
        0
451
        0
460
0.0
461
0.0
452
        0
462
0.0
453
        0
470

  0
SPLINE
  5
99
330
79
100
AcDbEntity
  8
Ebene 1
100
AcDbSpline
210
0.0
220
0.0
230
1.0
 70
     9
 71
     3
 72
    38
 73
    34
 74
     0
 42
0.0000000001
 43
0.0000000001
 40
0.0
 40
0.0
 40
0.0
 40
0.0
 40
1.0
 40
1.0
 40
1.0
 40
2.0
 40
2.0
 40
2.0
 40
3.0
 40
3.0
 40
3.0
 40
4.0
 40
4.0
 40
4.0
 40
5.0
 40
5.0
 40
5.0
 40
6.0
 40
6.0
 40
6.0
 40
7.0
 40
7.0
 40
7.0
 40
8.0
 40
8.0
 40
8.0
 40
9.0
 40
9.0
 40
9.0
 40
10.0
 40
10.0
 40
10.0
 40
11.0
 40
11.0
 40
11.0
 40
11.0
 10
18.78274265947384
 20
-2.36169986886871
 30
0.0
 10
18.78274265947384
 20
-2.36169986886871
 30
0.0
 10
18.78142062076607
 20
-2.406649184936632
 30
0.0
 10
18.78142062076607
 20
-2.406649184936632
 30
0.0
 10
18.78142062076607
 20
-2.526514027784957
 30
0.0
 10
18.81006479277013
 20
-2.617734698628576
 30
0.0
 10
18.86735313677826
 20
-2.680311197468773
 30
0.0
 10
18.92464148078639
 20
-2.742887696308007
 30
0.0
 10
18.99603157101208
 20
-2.774175945727944
 30
0.0
 10
19.08152340745501
 20
-2.774175945727944
 30
0.0
 10
19.16525252562124
 20
-2.774175945727944
 30
0.0
 10
19.24215111046266
 20
-2.744870754369992
 30
0.0
 10
19.31221916198058
 20
-2.686260371653766
 30
0.0
 10
19.38228721349849
 20
-2.627649988937861
 30
0.0
 10
19.43979589729125
 20
-2.536208978309291
 30
0.0
 10
19.48474521335949
 20
-2.411937339768057
 30
0.0
 10
19.5296945294271
 20
-2.287665701227465
 30
0.0
 10
19.55216918746122
 20
-2.173089013210886
 30
0.0
 10
19.55216918746122
 20
-2.068207275718962
 30
0.0
 10
19.55216918746122
 20
-1.950105151147672
 30
0.0
 10
19.5237453552421
 20
-1.858443800735115
 30
0.0
 10
19.46689769080291
 20
-1.793223224479366
 30
0.0
 10
19.41005002636404
 20
-1.728002648223938
 30
0.0
 10
19.3397616350615
 20
-1.695392360096544
 30
0.0
 10
19.2560325168956
 20
-1.695392360096544
 30
0.0
 10
19.16965932131414
 20
-1.695392360096544
 30
0.0
 10
19.09033699884147
 20
-1.728663667577826
 30
0.0
 10
19.01806554947662
 20
-1.795206282541351
 30
0.0
 10
18.94579410011273
 20
-1.861748897504876
 30
0.0
 10
18.88542099911979
 20
-1.964206897365235
 30
0.0
 10
18.83694624649684
 20
-2.102580282124032
 30
0.0
 10
18.80081052181473
 20
-2.20569930133828
 30
0.0
 10
18.78274265947384
 20
-2.292072496920373
 30
0.0
 10
18.78274265947384
 20
-2.36169986886871
 30
0.0
  0
SPLINE
  5
9A
330
79
100
AcDbEntity
  8
Ebene 1
100
AcDbSpline
210
0.0
220
0.0
230
1.0
 70
    11
 71
     3
 72
    53
 73
    49
 74
     0
 42
0.0000000001
 43
0.0000000001
 40
0.0
 40
0.0
 40
0.0
 40
0.0
 40
1.0
 40
1.0
 40
1.0
 40
2.0
 40
2.0
 40
2.0
 40
3.0
 40
3.0
 40
3.0
 40
4.0
 40
4.0
 40
4.0
 40
5.0
 40
5.0
 40
5.0
 40
6.0
 40
6.0
 40
6.0
 40
7.0
 40
7.0
 40
7.0
 40
8.0
 40
8.0
 40
8.0
 40
9.0
 40
9.0
 40
9.0
 40
10.0
 40
10.0
 40
10.0
 40
11.0
 40
11.0
 40
11.0
 40
12.0
 40
12.0
 40
12.0
 40
13.0
 40
13.0
 40
13.0
 40
14.0
 40
14.0
 40
14.0
 40
15.0
 40
15.0
 40
15.0
 40
16.0
 40
16.0
 40
16.0
 40
16.0
 10
18.42843628576158
 20
-2.938108745505674
 30
0.0
 10
18.42843628576158
 20
-2.938108745505674
 30
0.0
 10
18.83298013037287
 20
-0.9999999997500935
 30
0.0
 10
18.83298013037287
 20
-0.9999999997500935
 30
0.0
 10
18.83298013037287
 20
-0.9999999997500935
 30
0.0
 10
19.07226913649994
 20
-0.9999999997500935
 30
0.0
 10
19.07226913649994
 20
-0.9999999997500935
 30
0.0
 10
19.07226913649994
 20
-0.9999999997500935
 30
0.0
 10
18.92816691734078
 20
-1.692748282680671
 30
0.0
 10
18.92816691734078
 20
-1.692748282680671
 30
0.0
 10
19.00396380325938
 20
-1.623120910731693
 30
0.0
 10
19.07270981606952
 20
-1.573985138755813
 30
0.0
 10
19.13440495577023
 20
-1.545340966751428
 30
0.0
 10
19.19610009547159
 20
-1.516696794747363
 30
0.0
 10
19.26043931258818
 20
-1.502374708745171
 30
0.0
 10
19.32742260712129
 20
-1.502374708745171
 30
0.0
 10
19.45874511877066
 20
-1.502374708745171
 30
0.0
 10
19.56825399174045
 20
-1.551290140937063
 30
0.0
 10
19.65594922602999
 20
-1.649121005320205
 30
0.0
 10
19.74364446031954
 20
-1.746951869703347
 30
0.0
 10
19.78749207746464
 20
-1.889291370585152
 30
0.0
 10
19.78749207746464
 20
-2.076139507966261
 30
0.0
 10
19.78749207746464
 20
-2.200411146507175
 30
0.0
 10
19.76986489469268
 20
-2.314106475384915
 30
0.0
 10
19.73461052914878
 20
-2.417225494600125
 30
0.0
 10
19.69935616360519
 20
-2.520344513814693
 30
0.0
 10
19.65572888624537
 20
-2.606938049180774
 30
0.0
 10
19.60372869706834
 20
-2.677006100698691
 30
0.0
 10
19.55172850789196
 20
-2.747074152216286
 30
0.0
 10
19.4979656004379
 20
-2.803040457516638
 30
0.0
 10
19.44243997470713
 20
-2.844905016599428
 30
0.0
 10
19.38691434897603
 20
-2.886769575682538
 30
0.0
 10
19.33006668453716
 20
-2.918057825102797
 30
0.0
 10
19.27189698139052
 20
-2.938769764859562
 30
0.0
 10
19.21372727824323
 20
-2.959481704616328
 30
0.0
 10
19.1577609729432
 20
-2.96983767449455
 30
0.0
 10
19.10399806548914
 20
-2.96983767449455
 30
0.0
 10
19.01145535593742
 20
-2.96983767449455
 30
0.0
 10
18.92992963561814
 20
-2.945379958398764
 30
0.0
 10
18.85942090453096
 20
-2.896464526207514
 30
0.0
 10
18.78891217344411
 20
-2.847549094015622
 30
0.0
 10
18.73382722728227
 20
-2.772853907019848
 30
0.0
 10
18.69416606604578
 20
-2.672378965221153
 30
0.0
 10
18.69416606604578
 20
-2.672378965221153
 30
0.0
 10
18.63864044031436
 20
-2.938108745505674
 30
0.0
 10
18.63864044031436
 20
-2.938108745505674
 30
0.0
 10
18.63864044031436
 20
-2.938108745505674
 30
0.0
 10
18.42843628576158
 20
-2.938108745505674
 30
0.0
 10
18.42843628576158
 20
-2.938108745505674
 30
0.0
  0
HATCH
  5
9B
330
79
100
AcDbEntity
  8
Ebene 1
 62
   250
420
  1907995
440
 33554687
100
AcDbHatch
 10
0.0
 20
0.0
 30
0.0
210
0.0
220
0.0
230
1.0
  2
SOLID
 70
     1
 71
     1
 91
        2
 92
        1
 93
        1
 72
     4
 94
        3
 73
     0
 74
     0
 95
       38
 96
       34
 40
0.0
 40
0.0
 40
0.0
 40
0.0
 40
1.0
 40
1.0
 40
1.0
 40
2.0
 40
2.0
 40
2.0
 40
3.0
 40
3.0
 40
3.0
 40
4.0
 40
4.0
 40
4.0
 40
5.0
 40
5.0
 40
5.0
 40
6.0
 40
6.0
 40
6.0
 40
7.0
 40
7.0
 40
7.0
 40
8.0
 40
8.0
 40
8.0
 40
9.0
 40
9.0
 40
9.0
 40
10.0
 40
10.0
 40
10.0
 40
11.0
 40
11.0
 40
11.0
 40
11.0
 10
18.78274265947384
 20
-2.36169986886871
 10
18.78274265947384
 20
-2.36169986886871
 10
18.78142062076607
 20
-2.406649184936632
 10
18.78142062076607
 20
-2.406649184936632
 10
18.78142062076607
 20
-2.526514027784957
 10
18.81006479277013
 20
-2.617734698628576
 10
18.86735313677826
 20
-2.680311197468773
 10
18.92464148078639
 20
-2.742887696308007
 10
18.99603157101208
 20
-2.774175945727944
 10
19.08152340745501
 20
-2.774175945727944
 10
19.16525252562124
 20
-2.774175945727944
 10
19.24215111046266
 20
-2.744870754369992
 10
19.31221916198058
 20
-2.686260371653766
 10
19.38228721349849
 20
-2.627649988937861
 10
19.43979589729125
 20
-2.536208978309291
 10
19.48474521335949
 20
-2.411937339768057
 10
19.5296945294271
 20
-2.287665701227465
 10
19.55216918746122
 20
-2.173089013210886
 10
19.55216918746122
 20
-2.068207275718962
 10
19.55216918746122
 20
-1.950105151147672
 10
19.5237453552421
 20
-1.858443800735115
 10
19.46689769080291
 20
-1.793223224479366
 10
19.41005002636404
 20
-1.728002648223938
 10
19.3397616350615
 20
-1.695392360096544
 10
19.2560325168956
 20
-1.695392360096544
 10
19.16965932131414
 20
-1.695392360096544
 10
19.09033699884147
 20
-1.728663667577826
 10
19.01806554947662
 20
-1.795206282541351
 10
18.94579410011273
 20
-1.861748897504876
 10
18.88542099911979
 20
-1.964206897365235
 10
18.83694624649684
 20
-2.102580282124032
 10
18.80081052181473
 20
-2.20569930133828
 10
18.78274265947384
 20
-2.292072496920373
 10
18.78274265947384
 20
-2.36169986886871
 97
        0
 97
        1
330
99
 92
        1
 93
        1
 72
     4
 94
        3
 73
     0
 74
     0
 95
       53
 96
       49
 40
0.0
 40
0.0
 40
0.0
 40
0.0
 40
1.0
 40
1.0
 40
1.0
 40
2.0
 40
2.0
 40
2.0
 40
3.0
 40
3.0
 40
3.0
 40
4.0
 40
4.0
 40
4.0
 40
5.0
 40
5.0
 40
5.0
 40
6.0
 40
6.0
 40
6.0
 40
7.0
 40
7.0
 40
7.0
 40
8.0
 40
8.0
 40
8.0
 40
9.0
 40
9.0
 40
9.0
 40
10.0
 40
10.0
 40
10.0
 40
11.0
 40
11.0
 40
11.0
 40
12.0
 40
12.0
 40
12.0
 40
13.0
 40
13.0
 40
13.0
 40
14.0
 40
14.0
 40
14.0
 40
15.0
 40
15.0
 40
15.0
 40
16.0
 40
16.0
 40
16.0
 40
16.0
 10
18.42843628576158
 20
-2.938108745505674
 10
18.42843628576158
 20
-2.938108745505674
 10
18.83298013037287
 20
-0.9999999997500935
 10
18.83298013037287
 20
-0.9999999997500935
 10
18.83298013037287
 20
-0.9999999997500935
 10
19.07226913649994
 20
-0.9999999997500935
 10
19.07226913649994
 20
-0.9999999997500935
 10
19.07226913649994
 20
-0.9999999997500935
 10
18.92816691734078
 20
-1.692748282680671
 10
18.92816691734078
 20
-1.692748282680671
 10
19.00396380325938
 20
-1.623120910731693
 10
19.07270981606952
 20
-1.573985138755813
 10
19.13440495577023
 20
-1.545340966751428
 10
19.19610009547159
 20
-1.516696794747363
 10
19.26043931258818
 20
-1.502374708745171
 10
19.32742260712129
 20
-1.502374708745171
 10
19.45874511877066
 20
-1.502374708745171
 10
19.56825399174045
 20
-1.551290140937063
 10
19.65594922602999
 20
-1.649121005320205
 10
19.74364446031954
 20
-1.746951869703347
 10
19.78749207746464
 20
-1.889291370585152
 10
19.78749207746464
 20
-2.076139507966261
 10
19.78749207746464
 20
-2.200411146507175
 10
19.76986489469268
 20
-2.314106475384915
 10
19.73461052914878
 20
-2.417225494600125
 10
19.69935616360519
 20
-2.520344513814693
 10
19.65572888624537
 20
-2.606938049180774
 10
19.60372869706834
 20
-2.677006100698691
 10
19.55172850789196
 20
-2.747074152216286
 10
19.4979656004379
 20
-2.803040457516638
 10
19.44243997470713
 20
-2.844905016599428
 10
19.38691434897603
 20
-2.886769575682538
 10
19.33006668453716
 20
-2.918057825102797
 10
19.27189698139052
 20
-2.938769764859562
 10
19.21372727824323
 20
-2.959481704616328
 10
19.1577609729432
 20
-2.96983767449455
 10
19.10399806548914
 20
-2.96983767449455
 10
19.01145535593742
 20
-2.96983767449455
 10
18.92992963561814
 20
-2.945379958398764
 10
18.85942090453096
 20
-2.896464526207514
 10
18.78891217344411
 20
-2.847549094015622
 10
18.73382722728227
 20
-2.772853907019848
 10
18.69416606604578
 20
-2.672378965221153
 10
18.69416606604578
 20
-2.672378965221153
 10
18.63864044031436
 20
-2.938108745505674
 10
18.63864044031436
 20
-2.938108745505674
 10
18.63864044031436
 20
-2.938108745505674
 10
18.42843628576158
 20
-2.938108745505674
 10
18.42843628576158
 20
-2.938108745505674
 97
        0
 97
        1
330
9A
 75
     2
 76
     1
 98
        1
 10
0.0
 20
0.0
450
        0
451
        0
460
0.0
461
0.0
452
        0
462
0.0
453
        0
470

  0
SPLINE
  5
9C
330
79
100
AcDbEntity
  8
Ebene 1
100
AcDbSpline
210
0.0
220
0.0
230
1.0
 70
    11
 71
     3
 72
    17
 73
    13
 74
     0
 42
0.0000000001
 43
0.0000000001
 40
0.0
 40
0.0
 40
0.0
 40
0.0
 40
1.0
 40
1.0
 40
1.0
 40
2.0
 40
2.0
 40
2.0
 40
3.0
 40
3.0
 40
3.0
 40
4.0
 40
4.0
 40
4.0
 40
4.0
 10
20.27400232196544
 20
-1.27101793486604
 30
0.0
 10
20.27400232196544
 20
-1.27101793486604
 30
0.0
 10
20.33084998640399
 20
-0.9999999997500935
 30
0.0
 10
20.33084998640399
 20
-0.9999999997500935
 30
0.0
 10
20.33084998640399
 20
-0.9999999997500935
 30
0.0
 10
20.56881695382296
 20
-0.9999999997500935
 30
0.0
 10
20.56881695382296
 20
-0.9999999997500935
 30
0.0
 10
20.56881695382296
 20
-0.9999999997500935
 30
0.0
 10
20.51196928938409
 20
-1.27101793486604
 30
0.0
 10
20.51196928938409
 20
-1.27101793486604
 30
0.0
 10
20.51196928938409
 20
-1.27101793486604
 30
0.0
 10
20.27400232196544
 20
-1.27101793486604
 30
0.0
 10
20.27400232196544
 20
-1.27101793486604
 30
0.0
  0
SPLINE
  5
9D
330
79
100
AcDbEntity
  8
Ebene 1
100
AcDbSpline
210
0.0
220
0.0
230
1.0
 70
    11
 71
     3
 72
    17
 73
    13
 74
     0
 42
0.0000000001
 43
0.0000000001
 40
0.0
 40
0.0
 40
0.0
 40
0.0
 40
1.0
 40
1.0
 40
1.0
 40
2.0
 40
2.0
 40
2.0
 40
3.0
 40
3.0
 40
3.0
 40
4.0
 40
4.0
 40
4.0
 40
4.0
 10
19.92498410308396
 20
-2.938108745505674
 30
0.0
 10
19.92498410308396
 20
-2.938108745505674
 30
0.0
 10
20.21847669623371
 20
-1.534103637734688
 30
0.0
 10
20.21847669623371
 20
-1.534103637734688
 30
0.0
 10
20.21847669623371
 20
-1.534103637734688
 30
0.0
 10
20.45776570236045
 20
-1.534103637734688
 30
0.0
 10
20.45776570236045
 20
-1.534103637734688
 30
0.0
 10
20.45776570236045
 20
-1.534103637734688
 30
0.0
 10
20.16427310921071
 20
-2.938108745505674
 30
0.0
 10
20.16427310921071
 20
-2.938108745505674
 30
0.0
 10
20.16427310921071
 20
-2.938108745505674
 30
0.0
 10
19.92498410308396
 20
-2.938108745505674
 30
0.0
 10
19.92498410308396
 20
-2.938108745505674
 30
0.0
  0
HATCH
  5
9E
330
79
100
AcDbEntity
  8
Ebene 1
 62
   250
420
  1907995
440
 33554687
100
AcDbHatch
 10
0.0
 20
0.0
 30
0.0
210
0.0
220
0.0
230
1.0
  2
SOLID
 70
     1
 71
     1
 91
        2
 92
        1
 93
        1
 72
     4
 94
        3
 73
     0
 74
     0
 95
       17
 96
       13
 40
0.0
 40
0.0
 40
0.0
 40
0.0
 40
1.0
 40
1.0
 40
1.0
 40
2.0
 40
2.0
 40
2.0
 40
3.0
 40
3.0
 40
3.0
 40
4.0
 40
4.0
 40
4.0
 40
4.0
 10
20.27400232196544
 20
-1.27101793486604
 10
20.27400232196544
 20
-1.27101793486604
 10
20.33084998640399
 20
-0.9999999997500935
 10
20.33084998640399
 20
-0.9999999997500935
 10
20.33084998640399
 20
-0.9999999997500935
 10
20.56881695382296
 20
-0.9999999997500935
 10
20.56881695382296
 20
-0.9999999997500935
 10
20.56881695382296
 20
-0.9999999997500935
 10
20.51196928938409
 20
-1.27101793486604
 10
20.51196928938409
 20
-1.27101793486604
 10
20.51196928938409
 20
-1.27101793486604
 10
20.27400232196544
 20
-1.27101793486604
 10
20.27400232196544
 20
-1.27101793486604
 97
        0
 97
        1
330
9C
 92
        1
 93
        1
 72
     4
 94
        3
 73
     0
 74
     0
 95
       17
 96
       13
 40
0.0
 40
0.0
 40
0.0
 40
0.0
 40
1.0
 40
1.0
 40
1.0
 40
2.0
 40
2.0
 40
2.0
 40
3.0
 40
3.0
 40
3.0
 40
4.0
 40
4.0
 40
4.0
 40
4.0
 10
19.92498410308396
 20
-2.938108745505674
 10
19.92498410308396
 20
-2.938108745505674
 10
20.21847669623371
 20
-1.534103637734688
 10
20.21847669623371
 20
-1.534103637734688
 10
20.21847669623371
 20
-1.534103637734688
 10
20.45776570236045
 20
-1.534103637734688
 10
20.45776570236045
 20
-1.534103637734688
 10
20.45776570236045
 20
-1.534103637734688
 10
20.16427310921071
 20
-2.938108745505674
 10
20.16427310921071
 20
-2.938108745505674
 10
20.16427310921071
 20
-2.938108745505674
 10
19.92498410308396
 20
-2.938108745505674
 10
19.92498410308396
 20
-2.938108745505674
 97
        0
 97
        1
330
9D
 75
     2
 76
     1
 98
        1
 10
0.0
 20
0.0
450
        0
451
        0
460
0.0
461
0.0
452
        0
462
0.0
453
        0
470

  0
SPLINE
  5
9F
330
79
100
AcDbEntity
  8
Ebene 1
100
AcDbSpline
210
0.0
220
0.0
230
1.0
 70
    11
 71
     3
 72
    41
 73
    37
 74
     0
 42
0.0000000001
 43
0.0000000001
 40
0.0
 40
0.0
 40
0.0
 40
0.0
 40
1.0
 40
1.0
 40
1.0
 40
2.0
 40
2.0
 40
2.0
 40
3.0
 40
3.0
 40
3.0
 40
4.0
 40
4.0
 40
4.0
 40
5.0
 40
5.0
 40
5.0
 40
6.0
 40
6.0
 40
6.0
 40
7.0
 40
7.0
 40
7.0
 40
8.0
 40
8.0
 40
8.0
 40
9.0
 40
9.0
 40
9.0
 40
10.0
 40
10.0
 40
10.0
 40
11.0
 40
11.0
 40
11.0
 40
12.0
 40
12.0
 40
12.0
 40
12.0
 10
20.53576598612535
 20
-2.938108745505674
 30
0.0
 10
20.53576598612535
 20
-2.938108745505674
 30
0.0
 10
20.82925857927574
 20
-1.534103637734688
 30
0.0
 10
20.82925857927574
 20
-1.534103637734688
 30
0.0
 10
20.82925857927574
 20
-1.534103637734688
 30
0.0
 10
21.04078477253662
 20
-1.534103637734688
 30
0.0
 10
21.04078477253662
 20
-1.534103637734688
 30
0.0
 10
21.04078477253662
 20
-1.534103637734688
 30
0.0
 10
20.98129303068156
 20
-1.820986037344913
 30
0.0
 10
20.98129303068156
 20
-1.820986037344913
 30
0.0
 10
21.05356448004641
 20
-1.712578863298919
 30
0.0
 10
21.12429355091789
 20
-1.63237518168741
 30
0.0
 10
21.19348024329697
 20
-1.580374992510386
 30
0.0
 10
21.26266693567637
 20
-1.528374803333362
 30
0.0
 10
21.33339600654817
 20
-1.502374708745171
 30
0.0
 10
21.40566745591174
 20
-1.502374708745171
 30
0.0
 10
21.45326084939586
 20
-1.502374708745171
 30
0.0
 10
21.5118712321124
 20
-1.519561211947866
 30
0.0
 10
21.58149860406042
 20
-1.553934218352936
 30
0.0
 10
21.58149860406042
 20
-1.553934218352936
 30
0.0
 10
21.48366773967696
 20
-1.77603672127667
 30
0.0
 10
21.48366773967696
 20
-1.77603672127667
 30
0.0
 10
21.44224386016343
 20
-1.74607051056483
 30
0.0
 10
21.39685386452657
 20
-1.731087405208749
 30
0.0
 10
21.34749775276574
 20
-1.731087405208749
 30
0.0
 10
21.2637686345992
 20
-1.731087405208749
 30
0.0
 10
21.17783611858732
 20
-1.777799439554026
 30
0.0
 10
21.08970020472819
 20
-1.87122350824426
 30
0.0
 10
21.00156429086939
 20
-1.964647576934815
 30
0.0
 10
20.93237759849031
 20
-2.132546492836194
 30
0.0
 10
20.88214012759096
 20
-2.374920255947756
 30
0.0
 10
20.88214012759096
 20
-2.374920255947756
 30
0.0
 10
20.76315664388115
 20
-2.938108745505674
 30
0.0
 10
20.76315664388115
 20
-2.938108745505674
 30
0.0
 10
20.76315664388115
 20
-2.938108745505674
 30
0.0
 10
20.53576598612535
 20
-2.938108745505674
 30
0.0
 10
20.53576598612535
 20
-2.938108745505674
 30
0.0
  0
HATCH
  5
A0
330
79
100
AcDbEntity
  8
Ebene 1
 62
   250
420
  1907995
440
 33554687
100
AcDbHatch
 10
0.0
 20
0.0
 30
0.0
210
0.0
220
0.0
230
1.0
  2
SOLID
 70
     1
 71
     1
 91
        1
 92
        1
 93
        1
 72
     4
 94
        3
 73
     0
 74
     0
 95
       41
 96
       37
 40
0.0
 40
0.0
 40
0.0
 40
0.0
 40
1.0
 40
1.0
 40
1.0
 40
2.0
 40
2.0
 40
2.0
 40
3.0
 40
3.0
 40
3.0
 40
4.0
 40
4.0
 40
4.0
 40
5.0
 40
5.0
 40
5.0
 40
6.0
 40
6.0
 40
6.0
 40
7.0
 40
7.0
 40
7.0
 40
8.0
 40
8.0
 40
8.0
 40
9.0
 40
9.0
 40
9.0
 40
10.0
 40
10.0
 40
10.0
 40
11.0
 40
11.0
 40
11.0
 40
12.0
 40
12.0
 40
12.0
 40
12.0
 10
20.53576598612535
 20
-2.938108745505674
 10
20.53576598612535
 20
-2.938108745505674
 10
20.82925857927574
 20
-1.534103637734688
 10
20.82925857927574
 20
-1.534103637734688
 10
20.82925857927574
 20
-1.534103637734688
 10
21.04078477253662
 20
-1.534103637734688
 10
21.04078477253662
 20
-1.534103637734688
 10
21.04078477253662
 20
-1.534103637734688
 10
20.98129303068156
 20
-1.820986037344913
 10
20.98129303068156
 20
-1.820986037344913
 10
21.05356448004641
 20
-1.712578863298919
 10
21.12429355091789
 20
-1.63237518168741
 10
21.19348024329697
 20
-1.580374992510386
 10
21.26266693567637
 20
-1.528374803333362
 10
21.33339600654817
 20
-1.502374708745171
 10
21.40566745591174
 20
-1.502374708745171
 10
21.45326084939586
 20
-1.502374708745171
 10
21.5118712321124
 20
-1.519561211947866
 10
21.58149860406042
 20
-1.553934218352936
 10
21.58149860406042
 20
-1.553934218352936
 10
21.48366773967696
 20
-1.77603672127667
 10
21.48366773967696
 20
-1.77603672127667
 10
21.44224386016343
 20
-1.74607051056483
 10
21.39685386452657
 20
-1.731087405208749
 10
21.34749775276574
 20
-1.731087405208749
 10
21.2637686345992
 20
-1.731087405208749
 10
21.17783611858732
 20
-1.777799439554026
 10
21.08970020472819
 20
-1.87122350824426
 10
21.00156429086939
 20
-1.964647576934815
 10
20.93237759849031
 20
-2.132546492836194
 10
20.88214012759096
 20
-2.374920255947756
 10
20.88214012759096
 20
-2.374920255947756
 10
20.76315664388115
 20
-2.938108745505674
 10
20.76315664388115
 20
-2.938108745505674
 10
20.76315664388115
 20
-2.938108745505674
 10
20.53576598612535
 20
-2.938108745505674
 10
20.53576598612535
 20
-2.938108745505674
 97
        0
 97
        1
330
9F
 75
     2
 76
     1
 98
        1
 10
0.0
 20
0.0
450
        0
451
        0
460
0.0
461
0.0
452
        0
462
0.0
453
        0
470

  0
SPLINE
  5
A1
330
79
100
AcDbEntity
  8
Ebene 1
100
AcDbSpline
210
0.0
220
0.0
230
1.0
 70
     9
 71
     3
 72
    41
 73
    37
 74
     0
 42
0.0000000001
 43
0.0000000001
 40
0.0
 40
0.0
 40
0.0
 40
0.0
 40
1.0
 40
1.0
 40
1.0
 40
2.0
 40
2.0
 40
2.0
 40
3.0
 40
3.0
 40
3.0
 40
4.0
 40
4.0
 40
4.0
 40
5.0
 40
5.0
 40
5.0
 40
6.0
 40
6.0
 40
6.0
 40
7.0
 40
7.0
 40
7.0
 40
8.0
 40
8.0
 40
8.0
 40
9.0
 40
9.0
 40
9.0
 40
10.0
 40
10.0
 40
10.0
 40
11.0
 40
11.0
 40
11.0
 40
12.0
 40
12.0
 40
12.0
 40
12.0
 10
21.72295674580371
 20
-2.316750552800789
 30
0.0
 10
21.72295674580371
 20
-2.412818698907537
 30
0.0
 10
21.7322110167591
 20
-2.485090148271106
 30
0.0
 10
21.75071955866958
 20
-2.533564900893739
 30
0.0
 10
21.77716033282734
 20
-2.60142955456504
 30
0.0
 10
21.81483843600153
 20
-2.653209403956793
 30
0.0
 10
21.86375386819311
 20
-2.688904449069639
 30
0.0
 10
21.91266930038532
 20
-2.724599494182164
 30
0.0
 10
21.96709322719263
 20
-2.742447016738748
 30
0.0
 10
22.02702564861663
 20
-2.742447016738748
 30
0.0
 10
22.1054666119511
 20
-2.742447016738748
 30
0.0
 10
22.183466895716
 20
-2.714904543658472
 30
0.0
 10
22.26102649991196
 20
-2.659819597496316
 30
0.0
 10
22.33858610410727
 20
-2.604734651334481
 30
0.0
 10
22.40138294273209
 20
-2.519463154676175
 30
0.0
 10
22.44941701578515
 20
-2.404005107521079
 30
0.0
 10
22.4974510888382
 20
-2.288547060365983
 30
0.0
 10
22.52146812536473
 20
-2.178377168042954
 30
0.0
 10
22.52146812536473
 20
-2.073495430550388
 30
0.0
 10
22.52146812536473
 20
-1.958037383395613
 30
0.0
 10
22.48951885659122
 20
-1.866155693197464
 30
0.0
 10
22.42562031904325
 20
-1.797850359957224
 30
0.0
 10
22.36172178149528
 20
-1.729545026716343
 30
0.0
 10
22.28261979880723
 20
-1.695392360096544
 30
0.0
 10
22.18831437097816
 20
-1.695392360096544
 30
0.0
 10
22.13014466783151
 20
-1.695392360096544
 30
0.0
 10
22.07373768296223
 20
-1.711036484806192
 30
0.0
 10
22.01909341636933
 20
-1.74232473422613
 30
0.0
 10
21.96444914977707
 20
-1.773612983646068
 30
0.0
 10
21.91355065952384
 20
-1.821206377129863
 30
0.0
 10
21.86639794560898
 20
-1.885104914677515
 30
0.0
 10
21.81924523169477
 20
-1.949003452224525
 30
0.0
 10
21.78355018658192
 20
-2.025461357497335
 30
0.0
 10
21.75931281027076
 20
-2.114478630495302
 30
0.0
 10
21.73507543395993
 20
-2.203495903491986
 30
0.0
 10
21.72295674580371
 20
-2.270919877594349
 30
0.0
 10
21.72295674580371
 20
-2.316750552800789
 30
0.0
  0
SPLINE
  5
A2
330
79
100
AcDbEntity
  8
Ebene 1
100
AcDbSpline
210
0.0
220
0.0
230
1.0
 70
     9
 71
     3
 72
    77
 73
    73
 74
     0
 42
0.0000000001
 43
0.0000000001
 40
0.0
 40
0.0
 40
0.0
 40
0.0
 40
1.0
 40
1.0
 40
1.0
 40
2.0
 40
2.0
 40
2.0
 40
3.0
 40
3.0
 40
3.0
 40
4.0
 40
4.0
 40
4.0
 40
5.0
 40
5.0
 40
5.0
 40
6.0
 40
6.0
 40
6.0
 40
7.0
 40
7.0
 40
7.0
 40
8.0
 40
8.0
 40
8.0
 40
9.0
 40
9.0
 40
9.0
 40
10.0
 40
10.0
 40
10.0
 40
11.0
 40
11.0
 40
11.0
 40
12.0
 40
12.0
 40
12.0
 40
13.0
 40
13.0
 40
13.0
 40
14.0
 40
14.0
 40
14.0
 40
15.0
 40
15.0
 40
15.0
 40
16.0
 40
16.0
 40
16.0
 40
17.0
 40
17.0
 40
17.0
 40
18.0
 40
18.0
 40
18.0
 40
19.0
 40
19.0
 40
19.0
 40
20.0
 40
20.0
 40
20.0
 40
21.0
 40
21.0
 40
21.0
 40
22.0
 40
22.0
 40
22.0
 40
23.0
 40
23.0
 40
23.0
 40
24.0
 40
24.0
 40
24.0
 40
24.0
 10
21.42417599782254
 20
-3.065024461461819
 30
0.0
 10
21.42417599782254
 20
-3.065024461461819
 30
0.0
 10
21.66610908136484
 20
-3.08749911949594
 30
0.0
 10
21.66610908136484
 20
-3.08749911949594
 30
0.0
 10
21.6643463630878
 20
-3.142143386088837
 30
0.0
 10
21.67095655662732
 20
-3.183126586032789
 30
0.0
 10
21.68593966198276
 20
-3.210448719329077
 30
0.0
 10
21.70092276733885
 20
-3.237770852625686
 30
0.0
 10
21.72471946408106
 20
-3.25892347195171
 30
0.0
 10
21.7573297522091
 20
-3.273906577307149
 30
0.0
 10
21.80051634999934
 20
-3.293296478356138
 30
0.0
 10
21.85648265530002
 20
-3.302991428881114
 30
0.0
 10
21.92522866810952
 20
-3.302991428881114
 30
0.0
 10
22.06977156683826
 20
-3.302991428881114
 30
0.0
 10
22.17377194519166
 20
-3.265533665491233
 30
0.0
 10
22.23722980317005
 20
-3.19061813871115
 30
0.0
 10
22.27865368268391
 20
-3.140380667811482
 30
0.0
 10
22.31699280521199
 20
-3.031092134626649
 30
0.0
 10
22.35224717075589
 20
-2.862752539156011
 30
0.0
 10
22.35224717075589
 20
-2.862752539156011
 30
0.0
 10
22.37604386749747
 20
-2.749057210278271
 30
0.0
 10
22.37604386749747
 20
-2.749057210278271
 30
0.0
 10
22.25177222895656
 20
-2.87509156709686
 30
0.0
 10
22.11956835816867
 20
-2.938108745505674
 30
0.0
 10
21.97943225513315
 20
-2.938108745505674
 30
0.0
 10
21.83753343382061
 20
-2.938108745505674
 30
0.0
 10
21.71877028989543
 20
-2.885888216544021
 30
0.0
 10
21.62314282335858
 20
-2.781447158621035
 30
0.0
 10
21.52751535682205
 20
-2.677006100698691
 30
0.0
 10
21.47970162355363
 20
-2.529158105200509
 30
0.0
 10
21.47970162355363
 20
-2.337903172127133
 30
0.0
 10
21.47970162355363
 20
-2.180139886319668
 30
0.0
 10
21.51737972672846
 20
-2.03515630802199
 30
0.0
 10
21.59273593307748
 20
-1.902952437233457
 30
0.0
 10
21.66809213942682
 20
-1.770748566445245
 30
0.0
 10
21.75777043177804
 20
-1.670934644000117
 30
0.0
 10
21.86177081013176
 20
-1.603510669898395
 30
0.0
 10
21.96577118848485
 20
-1.536086695796032
 30
0.0
 10
22.07285632382371
 20
-1.502374708745171
 30
0.0
 10
22.18302621614705
 20
-1.502374708745171
 30
0.0
 10
22.36723027611133
 20
-1.502374708745171
 30
0.0
 10
22.50912909742452
 20
-1.58962926346514
 30
0.0
 10
22.6087226800847
 20
-1.764138372905722
 30
0.0
 10
22.6087226800847
 20
-1.764138372905722
 30
0.0
 10
22.65631607356881
 20
-1.534103637734688
 30
0.0
 10
22.65631607356881
 20
-1.534103637734688
 30
0.0
 10
22.65631607356881
 20
-1.534103637734688
 30
0.0
 10
22.87577449907731
 20
-1.534103637734688
 30
0.0
 10
22.87577449907731
 20
-1.534103637734688
 30
0.0
 10
22.87577449907731
 20
-1.534103637734688
 30
0.0
 10
22.59285821559042
 20
-2.889193313313782
 30
0.0
 10
22.59285821559042
 20
-2.889193313313782
 30
0.0
 10
22.56201064573974
 20
-3.038143007735431
 30
0.0
 10
22.52146812536473
 20
-3.154262074244094
 30
0.0
 10
22.47123065446506
 20
-3.237550512841056
 30
0.0
 10
22.42099318356571
 20
-3.320838951437377
 30
0.0
 10
22.35114547183274
 20
-3.385398508338596
 30
0.0
 10
22.26168751926552
 20
-3.431229183545355
 30
0.0
 10
22.17222956669925
 20
-3.477059858752115
 30
0.0
 10
22.06889020770006
 20
-3.499975196355495
 30
0.0
 10
21.95166944226761
 20
-3.499975196355495
 30
0.0
 10
21.83885547252806
 20
-3.499975196355495
 30
0.0
 10
21.74168562749881
 20
-3.485432770568674
 30
0.0
 10
21.66015990717984
 20
-3.45634791899535
 30
0.0
 10
21.57863418686024
 20
-3.427263067422027
 30
0.0
 10
21.51782040629772
 20
-3.384737488985028
 30
0.0
 10
21.47771856549164
 20
-3.328771183684355
 30
0.0
 10
21.43761672468589
 20
-3.272804878384644
 30
0.0
 10
21.41756580428333
 20
-3.208686001052042
 30
0.0
 10
21.41756580428333
 20
-3.136414551687832
 30
0.0
 10
21.41756580428333
 20
-3.11438057322297
 30
0.0
 10
21.41976920212931
 20
-3.090583876481072
 30
0.0
 10
21.42417599782254
 20
-3.065024461461819
 30
0.0
  0
HATCH
  5
A3
330
79
100
AcDbEntity
  8
Ebene 1
 62
   250
420
  1907995
440
 33554687
100
AcDbHatch
 10
0.0
 20
0.0
 30
0.0
210
0.0
220
0.0
230
1.0
  2
SOLID
 70
     1
 71
     1
 91
        2
 92
        1
 93
        1
 72
     4
 94
        3
 73
     0
 74
     0
 95
       41
 96
       37
 40
0.0
 40
0.0
 40
0.0
 40
0.0
 40
1.0
 40
1.0
 40
1.0
 40
2.0
 40
2.0
 40
2.0
 40
3.0
 40
3.0
 40
3.0
 40
4.0
 40
4.0
 40
4.0
 40
5.0
 40
5.0
 40
5.0
 40
6.0
 40
6.0
 40
6.0
 40
7.0
 40
7.0
 40
7.0
 40
8.0
 40
8.0
 40
8.0
 40
9.0
 40
9.0
 40
9.0
 40
10.0
 40
10.0
 40
10.0
 40
11.0
 40
11.0
 40
11.0
 40
12.0
 40
12.0
 40
12.0
 40
12.0
 10
21.72295674580371
 20
-2.316750552800789
 10
21.72295674580371
 20
-2.412818698907537
 10
21.7322110167591
 20
-2.485090148271106
 10
21.75071955866958
 20
-2.533564900893739
 10
21.77716033282734
 20
-2.60142955456504
 10
21.81483843600153
 20
-2.653209403956793
 10
21.86375386819311
 20
-2.688904449069639
 10
21.91266930038532
 20
-2.724599494182164
 10
21.96709322719263
 20
-2.742447016738748
 10
22.02702564861663
 20
-2.742447016738748
 10
22.1054666119511
 20
-2.742447016738748
 10
22.183466895716
 20
-2.714904543658472
 10
22.26102649991196
 20
-2.659819597496316
 10
22.33858610410727
 20
-2.604734651334481
 10
22.40138294273209
 20
-2.519463154676175
 10
22.44941701578515
 20
-2.404005107521079
 10
22.4974510888382
 20
-2.288547060365983
 10
22.52146812536473
 20
-2.178377168042954
 10
22.52146812536473
 20
-2.073495430550388
 10
22.52146812536473
 20
-1.958037383395613
 10
22.48951885659122
 20
-1.866155693197464
 10
22.42562031904325
 20
-1.797850359957224
 10
22.36172178149528
 20
-1.729545026716343
 10
22.28261979880723
 20
-1.695392360096544
 10
22.18831437097816
 20
-1.695392360096544
 10
22.13014466783151
 20
-1.695392360096544
 10
22.07373768296223
 20
-1.711036484806192
 10
22.01909341636933
 20
-1.74232473422613
 10
21.96444914977707
 20
-1.773612983646068
 10
21.91355065952384
 20
-1.821206377129863
 10
21.86639794560898
 20
-1.885104914677515
 10
21.81924523169477
 20
-1.949003452224525
 10
21.78355018658192
 20
-2.025461357497335
 10
21.75931281027076
 20
-2.114478630495302
 10
21.73507543395993
 20
-2.203495903491986
 10
21.72295674580371
 20
-2.270919877594349
 10
21.72295674580371
 20
-2.316750552800789
 97
        0
 97
        1
330
A1
 92
        1
 93
        1
 72
     4
 94
        3
 73
     0
 74
     0
 95
       77
 96
       73
 40
0.0
 40
0.0
 40
0.0
 40
0.0
 40
1.0
 40
1.0
 40
1.0
 40
2.0
 40
2.0
 40
2.0
 40
3.0
 40
3.0
 40
3.0
 40
4.0
 40
4.0
 40
4.0
 40
5.0
 40
5.0
 40
5.0
 40
6.0
 40
6.0
 40
6.0
 40
7.0
 40
7.0
 40
7.0
 40
8.0
 40
8.0
 40
8.0
 40
9.0
 40
9.0
 40
9.0
 40
10.0
 40
10.0
 40
10.0
 40
11.0
 40
11.0
 40
11.0
 40
12.0
 40
12.0
 40
12.0
 40
13.0
 40
13.0
 40
13.0
 40
14.0
 40
14.0
 40
14.0
 40
15.0
 40
15.0
 40
15.0
 40
16.0
 40
16.0
 40
16.0
 40
17.0
 40
17.0
 40
17.0
 40
18.0
 40
18.0
 40
18.0
 40
19.0
 40
19.0
 40
19.0
 40
20.0
 40
20.0
 40
20.0
 40
21.0
 40
21.0
 40
21.0
 40
22.0
 40
22.0
 40
22.0
 40
23.0
 40
23.0
 40
23.0
 40
24.0
 40
24.0
 40
24.0
 40
24.0
 10
21.42417599782254
 20
-3.065024461461819
 10
21.42417599782254
 20
-3.065024461461819
 10
21.66610908136484
 20
-3.08749911949594
 10
21.66610908136484
 20
-3.08749911949594
 10
21.6643463630878
 20
-3.142143386088837
 10
21.67095655662732
 20
-3.183126586032789
 10
21.68593966198276
 20
-3.210448719329077
 10
21.70092276733885
 20
-3.237770852625686
 10
21.72471946408106
 20
-3.25892347195171
 10
21.7573297522091
 20
-3.273906577307149
 10
21.80051634999934
 20
-3.293296478356138
 10
21.85648265530002
 20
-3.302991428881114
 10
21.92522866810952
 20
-3.302991428881114
 10
22.06977156683826
 20
-3.302991428881114
 10
22.17377194519166
 20
-3.265533665491233
 10
22.23722980317005
 20
-3.19061813871115
 10
22.27865368268391
 20
-3.140380667811482
 10
22.31699280521199
 20
-3.031092134626649
 10
22.35224717075589
 20
-2.862752539156011
 10
22.35224717075589
 20
-2.862752539156011
 10
22.37604386749747
 20
-2.749057210278271
 10
22.37604386749747
 20
-2.749057210278271
 10
22.25177222895656
 20
-2.87509156709686
 10
22.11956835816867
 20
-2.938108745505674
 10
21.97943225513315
 20
-2.938108745505674
 10
21.83753343382061
 20
-2.938108745505674
 10
21.71877028989543
 20
-2.885888216544021
 10
21.62314282335858
 20
-2.781447158621035
 10
21.52751535682205
 20
-2.677006100698691
 10
21.47970162355363
 20
-2.529158105200509
 10
21.47970162355363
 20
-2.337903172127133
 10
21.47970162355363
 20
-2.180139886319668
 10
21.51737972672846
 20
-2.03515630802199
 10
21.59273593307748
 20
-1.902952437233457
 10
21.66809213942682
 20
-1.770748566445245
 10
21.75777043177804
 20
-1.670934644000117
 10
21.86177081013176
 20
-1.603510669898395
 10
21.96577118848485
 20
-1.536086695796032
 10
22.07285632382371
 20
-1.502374708745171
 10
22.18302621614705
 20
-1.502374708745171
 10
22.36723027611133
 20
-1.502374708745171
 10
22.50912909742452
 20
-1.58962926346514
 10
22.6087226800847
 20
-1.764138372905722
 10
22.6087226800847
 20
-1.764138372905722
 10
22.65631607356881
 20
-1.534103637734688
 10
22.65631607356881
 20
-1.534103637734688
 10
22.65631607356881
 20
-1.534103637734688
 10
22.87577449907731
 20
-1.534103637734688
 10
22.87577449907731
 20
-1.534103637734688
 10
22.87577449907731
 20
-1.534103637734688
 10
22.59285821559042
 20
-2.889193313313782
 10
22.59285821559042
 20
-2.889193313313782
 10
22.56201064573974
 20
-3.038143007735431
 10
22.52146812536473
 20
-3.154262074244094
 10
22.47123065446506
 20
-3.237550512841056
 10
22.42099318356571
 20
-3.320838951437377
 10
22.35114547183274
 20
-3.385398508338596
 10
22.26168751926552
 20
-3.431229183545355
 10
22.17222956669925
 20
-3.477059858752115
 10
22.06889020770006
 20
-3.499975196355495
 10
21.95166944226761
 20
-3.499975196355495
 10
21.83885547252806
 20
-3.499975196355495
 10
21.74168562749881
 20
-3.485432770568674
 10
21.66015990717984
 20
-3.45634791899535
 10
21.57863418686024
 20
-3.427263067422027
 10
21.51782040629772
 20
-3.384737488985028
 10
21.47771856549164
 20
-3.328771183684355
 10
21.43761672468589
 20
-3.272804878384644
 10
21.41756580428333
 20
-3.208686001052042
 10
21.41756580428333
 20
-3.136414551687832
 10
21.41756580428333
 20
-3.11438057322297
 10
21.41976920212931
 20
-3.090583876481072
 10
21.42417599782254
 20
-3.065024461461819
 97
        0
 97
        1
330
A2
 75
     2
 76
     1
 98
        1
 10
0.0
 20
0.0
450
        0
451
        0
460
0.0
461
0.0
452
        0
462
0.0
453
        0
470

  0
SPLINE
  5
A4
330
79
100
AcDbEntity
  8
Ebene 1
100
AcDbSpline
210
0.0
220
0.0
230
1.0
 70
     9
 71
     3
 72
    23
 73
    19
 74
     0
 42
0.0000000001
 43
0.0000000001
 40
0.0
 40
0.0
 40
0.0
 40
0.0
 40
1.0
 40
1.0
 40
1.0
 40
2.0
 40
2.0
 40
2.0
 40
3.0
 40
3.0
 40
3.0
 40
4.0
 40
4.0
 40
4.0
 40
5.0
 40
5.0
 40
5.0
 40
6.0
 40
6.0
 40
6.0
 40
6.0
 10
23.27899630498115
 20
-2.113156591786884
 30
0.0
 10
23.27899630498115
 20
-2.113156591786884
 30
0.0
 10
24.06693137487868
 20
-2.113156591786884
 30
0.0
 10
24.06693137487868
 20
-2.113156591786884
 30
0.0
 10
24.06781273401752
 20
-2.088478535906148
 30
0.0
 10
24.06825341358678
 20
-2.070851353134515
 30
0.0
 10
24.06825341358678
 20
-2.060275043471663
 30
0.0
 10
24.06825341358678
 20
-1.940410200623659
 30
0.0
 10
24.03828720287494
 20
-1.848528510425509
 30
0.0
 10
23.97835478145061
 20
-1.784629972878178
 30
0.0
 10
23.91842236002693
 20
-1.720731435330526
 30
0.0
 10
23.84130343540055
 20
-1.688782166556701
 30
0.0
 10
23.74699800757148
 20
-1.688782166556701
 30
0.0
 10
23.64476034749511
 20
-1.688782166556701
 30
0.0
 10
23.55155661858983
 20
-1.724036532100288
 30
0.0
 10
23.46738682085435
 20
-1.794545263187463
 30
0.0
 10
23.38321702311919
 20
-1.865053994274317
 30
0.0
 10
23.320420184495
 20
-1.971257770474017
 30
0.0
 10
23.27899630498115
 20
-2.113156591786884
 30
0.0
  0
SPLINE
  5
A5
330
79
100
AcDbEntity
  8
Ebene 1
100
AcDbSpline
210
0.0
220
0.0
230
1.0
 70
     9
 71
     3
 72
    59
 73
    55
 74
     0
 42
0.0000000001
 43
0.0000000001
 40
0.0
 40
0.0
 40
0.0
 40
0.0
 40
1.0
 40
1.0
 40
1.0
 40
2.0
 40
2.0
 40
2.0
 40
3.0
 40
3.0
 40
3.0
 40
4.0
 40
4.0
 40
4.0
 40
5.0
 40
5.0
 40
5.0
 40
6.0
 40
6.0
 40
6.0
 40
7.0
 40
7.0
 40
7.0
 40
8.0
 40
8.0
 40
8.0
 40
9.0
 40
9.0
 40
9.0
 40
10.0
 40
10.0
 40
10.0
 40
11.0
 40
11.0
 40
11.0
 40
12.0
 40
12.0
 40
12.0
 40
13.0
 40
13.0
 40
13.0
 40
14.0
 40
14.0
 40
14.0
 40
15.0
 40
15.0
 40
15.0
 40
16.0
 40
16.0
 40
16.0
 40
17.0
 40
17.0
 40
17.0
 40
18.0
 40
18.0
 40
18.0
 40
18.0
 10
23.97438866532728
 20
-2.460852771959949
 30
0.0
 10
23.97438866532728
 20
-2.460852771959949
 30
0.0
 10
24.20706747791451
 20
-2.484649468701526
 30
0.0
 10
24.20706747791451
 20
-2.484649468701526
 30
0.0
 10
24.17357583064828
 20
-2.600107515856622
 30
0.0
 10
24.09667724580653
 20
-2.709836728610713
 30
0.0
 10
23.97637172338927
 20
-2.81383710696444
 30
0.0
 10
23.85606620097201
 20
-2.917837485318167
 30
0.0
 10
23.71262500116673
 20
-2.96983767449455
 30
0.0
 10
23.54604812397345
 20
-2.96983767449455
 30
0.0
 10
23.44204774561973
 20
-2.96983767449455
 30
0.0
 10
23.34664061886782
 20
-2.945820637968344
 30
0.0
 10
23.2598267437168
 20
-2.897786564914969
 30
0.0
 10
23.1730128685664
 20
-2.849752491861916
 30
0.0
 10
23.10691093317149
 20
-2.77990478012895
 30
0.0
 10
23.06152093753432
 20
-2.68824342971543
 30
0.0
 10
23.01613094189713
 20
-2.596582079302552
 30
0.0
 10
22.9934359440787
 20
-2.492141021379887
 30
0.0
 10
22.9934359440787
 20
-2.374920255947756
 30
0.0
 10
22.9934359440787
 20
-2.221563765833199
 30
0.0
 10
23.0289106494066
 20
-2.0728344111965
 30
0.0
 10
23.09986006006303
 20
-1.928732192037019
 30
0.0
 10
23.17080947071979
 20
-1.784629972878178
 30
0.0
 10
23.26269116091729
 20
-1.67754483753964
 30
0.0
 10
23.37550513065684
 20
-1.607476786021724
 30
0.0
 10
23.48831910039542
 20
-1.53740873450445
 30
0.0
 10
23.61038734109036
 20
-1.502374708745171
 30
0.0
 10
23.74170985273973
 20
-1.502374708745171
 30
0.0
 10
23.90916808907185
 20
-1.502374708745171
 30
0.0
 10
24.04291433835247
 20
-1.554374897922195
 30
0.0
 10
24.14294860058223
 20
-1.65837527627528
 30
0.0
 10
24.24298286281199
 20
-1.762375654629007
 30
0.0
 10
24.2929999939267
 20
-1.904274475941554
 30
0.0
 10
24.2929999939267
 20
-2.084071740213561
 30
0.0
 10
24.2929999939267
 20
-2.1528177530237
 30
0.0
 10
24.28683047995644
 20
-2.223326484110234
 30
0.0
 10
24.27449145201688
 20
-2.295597933475085
 30
0.0
 10
24.27449145201688
 20
-2.295597933475085
 30
0.0
 10
23.24065718245307
 20
-2.295597933475085
 30
0.0
 10
23.24065718245307
 20
-2.295597933475085
 30
0.0
 10
23.23713174589836
 20
-2.322920066770732
 30
0.0
 10
23.23536902762101
 20
-2.347598122650826
 30
0.0
 10
23.23536902762101
 20
-2.369632101116009
 30
0.0
 10
23.23536902762101
 20
-2.500954612765704
 30
0.0
 10
23.2655555781178
 20
-2.60120921478009
 30
0.0
 10
23.32592867911138
 20
-2.670395907158847
 30
0.0
 10
23.386301780104
 20
-2.739582599538887
 30
0.0
 10
23.46011560796094
 20
-2.774175945727944
 30
0.0
 10
23.54737016268122
 20
-2.774175945727944
 30
0.0
 10
23.62933656256977
 20
-2.774175945727944
 30
0.0
 10
23.70998092375054
 20
-2.747294492001236
 30
0.0
 10
23.78930324622321
 20
-2.693531584547177
 30
0.0
 10
23.86862556869652
 20
-2.639768677093439
 30
0.0
 10
23.93032070839756
 20
-2.562209072897803
 30
0.0
 10
23.97438866532728
 20
-2.460852771959949
 30
0.0
  0
HATCH
  5
A6
330
79
100
AcDbEntity
  8
Ebene 1
 62
   250
420
  1907995
440
 33554687
100
AcDbHatch
 10
0.0
 20
0.0
 30
0.0
210
0.0
220
0.0
230
1.0
  2
SOLID
 70
     1
 71
     1
 91
        2
 92
        1
 93
        1
 72
     4
 94
        3
 73
     0
 74
     0
 95
       23
 96
       19
 40
0.0
 40
0.0
 40
0.0
 40
0.0
 40
1.0
 40
1.0
 40
1.0
 40
2.0
 40
2.0
 40
2.0
 40
3.0
 40
3.0
 40
3.0
 40
4.0
 40
4.0
 40
4.0
 40
5.0
 40
5.0
 40
5.0
 40
6.0
 40
6.0
 40
6.0
 40
6.0
 10
23.27899630498115
 20
-2.113156591786884
 10
23.27899630498115
 20
-2.113156591786884
 10
24.06693137487868
 20
-2.113156591786884
 10
24.06693137487868
 20
-2.113156591786884
 10
24.06781273401752
 20
-2.088478535906148
 10
24.06825341358678
 20
-2.070851353134515
 10
24.06825341358678
 20
-2.060275043471663
 10
24.06825341358678
 20
-1.940410200623659
 10
24.03828720287494
 20
-1.848528510425509
 10
23.97835478145061
 20
-1.784629972878178
 10
23.91842236002693
 20
-1.720731435330526
 10
23.84130343540055
 20
-1.688782166556701
 10
23.74699800757148
 20
-1.688782166556701
 10
23.64476034749511
 20
-1.688782166556701
 10
23.55155661858983
 20
-1.724036532100288
 10
23.46738682085435
 20
-1.794545263187463
 10
23.38321702311919
 20
-1.865053994274317
 10
23.320420184495
 20
-1.971257770474017
 10
23.27899630498115
 20
-2.113156591786884
 97
        0
 97
        1
330
A4
 92
        1
 93
        1
 72
     4
 94
        3
 73
     0
 74
     0
 95
       59
 96
       55
 40
0.0
 40
0.0
 40
0.0
 40
0.0
 40
1.0
 40
1.0
 40
1.0
 40
2.0
 40
2.0
 40
2.0
 40
3.0
 40
3.0
 40
3.0
 40
4.0
 40
4.0
 40
4.0
 40
5.0
 40
5.0
 40
5.0
 40
6.0
 40
6.0
 40
6.0
 40
7.0
 40
7.0
 40
7.0
 40
8.0
 40
8.0
 40
8.0
 40
9.0
 40
9.0
 40
9.0
 40
10.0
 40
10.0
 40
10.0
 40
11.0
 40
11.0
 40
11.0
 40
12.0
 40
12.0
 40
12.0
 40
13.0
 40
13.0
 40
13.0
 40
14.0
 40
14.0
 40
14.0
 40
15.0
 40
15.0
 40
15.0
 40
16.0
 40
16.0
 40
16.0
 40
17.0
 40
17.0
 40
17.0
 40
18.0
 40
18.0
 40
18.0
 40
18.0
 10
23.97438866532728
 20
-2.460852771959949
 10
23.97438866532728
 20
-2.460852771959949
 10
24.20706747791451
 20
-2.484649468701526
 10
24.20706747791451
 20
-2.484649468701526
 10
24.17357583064828
 20
-2.600107515856622
 10
24.09667724580653
 20
-2.709836728610713
 10
23.97637172338927
 20
-2.81383710696444
 10
23.85606620097201
 20
-2.917837485318167
 10
23.71262500116673
 20
-2.96983767449455
 10
23.54604812397345
 20
-2.96983767449455
 10
23.44204774561973
 20
-2.96983767449455
 10
23.34664061886782
 20
-2.945820637968344
 10
23.2598267437168
 20
-2.897786564914969
 10
23.1730128685664
 20
-2.849752491861916
 10
23.10691093317149
 20
-2.77990478012895
 10
23.06152093753432
 20
-2.68824342971543
 10
23.01613094189713
 20
-2.596582079302552
 10
22.9934359440787
 20
-2.492141021379887
 10
22.9934359440787
 20
-2.374920255947756
 10
22.9934359440787
 20
-2.221563765833199
 10
23.0289106494066
 20
-2.0728344111965
 10
23.09986006006303
 20
-1.928732192037019
 10
23.17080947071979
 20
-1.784629972878178
 10
23.26269116091729
 20
-1.67754483753964
 10
23.37550513065684
 20
-1.607476786021724
 10
23.48831910039542
 20
-1.53740873450445
 10
23.61038734109036
 20
-1.502374708745171
 10
23.74170985273973
 20
-1.502374708745171
 10
23.90916808907185
 20
-1.502374708745171
 10
24.04291433835247
 20
-1.554374897922195
 10
24.14294860058223
 20
-1.65837527627528
 10
24.24298286281199
 20
-1.762375654629007
 10
24.2929999939267
 20
-1.904274475941554
 10
24.2929999939267
 20
-2.084071740213561
 10
24.2929999939267
 20
-2.1528177530237
 10
24.28683047995644
 20
-2.223326484110234
 10
24.27449145201688
 20
-2.295597933475085
 10
24.27449145201688
 20
-2.295597933475085
 10
23.24065718245307
 20
-2.295597933475085
 10
23.24065718245307
 20
-2.295597933475085
 10
23.23713174589836
 20
-2.322920066770732
 10
23.23536902762101
 20
-2.347598122650826
 10
23.23536902762101
 20
-2.369632101116009
 10
23.23536902762101
 20
-2.500954612765704
 10
23.2655555781178
 20
-2.60120921478009
 10
23.32592867911138
 20
-2.670395907158847
 10
23.386301780104
 20
-2.739582599538887
 10
23.46011560796094
 20
-2.774175945727944
 10
23.54737016268122
 20
-2.774175945727944
 10
23.62933656256977
 20
-2.774175945727944
 10
23.70998092375054
 20
-2.747294492001236
 10
23.78930324622321
 20
-2.693531584547177
 10
23.86862556869652
 20
-2.639768677093439
 10
23.93032070839756
 20
-2.562209072897803
 10
23.97438866532728
 20
-2.460852771959949
 97
        0
 97
        1
330
A5
 75
     2
 76
     1
 98
        1
 10
0.0
 20
0.0
450
        0
451
        0
460
0.0
461
0.0
452
        0
462
0.0
453
        0
470

  0
ENDBLK
  5
7C
330
79
100
AcDbEntity
  8
0
100
AcDbBlockEnd
  0
ENDSEC
  0
SECTION
  2
ENTITIES
  0
INSERT
  5
7A
330
70
100
AcDbEntity
  8
Ebene 1
100
AcDbBlockReference
  2
Block_0
 10
0.0
 20
0.0
 30
0.0
  0
ENDSEC
  0
SECTION
  2
OBJECTS
  0
DICTIONARY
  5
C
330
0
100
AcDbDictionary
281
     1
  3
ACAD_COLOR
350
63
  3
ACAD_DETAILVIEWSTYLE
350
6A
  3
ACAD_GROUP
350
D
  3
ACAD_LAYOUT
350
62
  3
ACAD_MATERIAL
350
10
  3
ACAD_MLEADERSTYLE
350
66
  3
ACAD_MLINESTYLE
350
5F
  3
ACAD_PLOTSETTINGS
350
61
  3
ACAD_PLOTSTYLENAME
350
E
  3
ACAD_SCALELIST
350
42
  3
ACAD_SECTIONVIEWSTYLE
350
68
  3
ACAD_TABLESTYLE
350
64
  3
ACAD_VISUALSTYLE
350
29
  3
ACDB_RECOMPOSE_DATA
350
AF
  3
AcDbVariableDictionary
350
A7
  0
DICTIONARY
  5
63
102
{ACAD_REACTORS
330
C
102
}
330
C
100
AcDbDictionary
281
     1
  0
DICTIONARY
  5
6A
102
{ACAD_REACTORS
330
C
102
}
330
C
100
AcDbDictionary
281
     1
  3
Imperial24
350
6B
  0
DICTIONARY
  5
D
102
{ACAD_REACTORS
330
C
102
}
330
C
100
AcDbDictionary
281
     1
  0
DICTIONARY
  5
62
102
{ACAD_REACTORS
330
C
102
}
330
C
100
AcDbDictionary
281
     1
  3
Layout1
350
6F
  3
Layout2
350
77
  3
Model
350
73
  0
DICTIONARY
  5
10
102
{ACAD_REACTORS
330
C
102
}
330
C
100
AcDbDictionary
281
     1
  3
ByBlock
350
19
  3
ByLayer
350
11
  3
Global
350
21
  0
DICTIONARY
  5
66
102
{ACAD_REACTORS
330
C
102
}
330
C
100
AcDbDictionary
281
     1
  3
Standard
350
67
  0
DICTIONARY
  5
5F
102
{ACAD_REACTORS
330
C
102
}
330
C
100
AcDbDictionary
281
     1
  3
Standard
350
60
  0
DICTIONARY
  5
61
102
{ACAD_REACTORS
330
C
102
}
330
C
100
AcDbDictionary
281
     1
  0
ACDBDICTIONARYWDFLT
  5
E
102
{ACAD_REACTORS
330
C
102
}
330
C
100
AcDbDictionary
281
     1
  3
Normal
350
F
100
AcDbDictionaryWithDefault
340
F
  0
DICTIONARY
  5
42
102
{ACAD_REACTORS
330
C
102
}
330
C
100
AcDbDictionary
281
     1
  3
A0
350
43
  3
A1
350
44
  3
A2
350
45
  3
A3
350
46
  3
A4
350
47
  3
A5
350
48
  3
A6
350
49
  3
A7
350
4A
  3
A8
350
4B
  3
A9
350
4C
  3
B0
350
4D
  3
B1
350
4E
  3
B2
350
4F
  3
B3
350
50
  3
B4
350
51
  3
B5
350
52
  3
B6
350
53
  0
DICTIONARY
  5
68
102
{ACAD_REACTORS
330
C
102
}
330
C
100
AcDbDictionary
281
     1
  3
Imperial24
350
69
  0
DICTIONARY
  5
64
102
{ACAD_REACTORS
330
C
102
}
330
C
100
AcDbDictionary
281
     1
  3
Standard
350
65
  0
DICTIONARY
  5
29
102
{ACAD_REACTORS
330
C
102
}
330
C
100
AcDbDictionary
281
     1
  3
2dWireframe
350
2F
  3
Basic
350
2E
  3
Brighten
350
35
  3
ColorChange
350
39
  3
Conceptual
350
32
  3
Dim
350
34
  3
EdgeColorOff
350
41
  3
Facepattern
350
38
  3
Flat
350
2A
  3
FlatWithEdges
350
2B
  3
Gouraud
350
2C
  3
GouraudWithEdges
350
2D
  3
Hidden
350
31
  3
JitterOff
350
3F
  3
Linepattern
350
37
  3
OverhangOff
350
40
  3
Realistic
350
33
  3
Shaded
350
3E
  3
Shaded with edges
350
3D
  3
Shades of Gray
350
3A
  3
Sketchy
350
3B
  3
Thicken
350
36
  3
Wireframe
350
30
  3
X-Ray
350
3C
  0
XRECORD
  5
AF
102
{ACAD_REACTORS
330
C
102
}
330
C
100
AcDbXrecord
280
     1
 90
        1
330
65
  0
DICTIONARY
  5
A7
102
{ACAD_REACTORS
330
C
102
}
330
C
100
AcDbDictionary
281
     1
  3
CANNOSCALE
350
AC
  3
CMLEADERSTYLE
350
A9
  3
CTABLESTYLE
350
A8
  3
CVIEWDETAILSTYLE
350
AA
  3
CVIEWSECTIONSTYLE
350
AB
  0
ACDBDETAILVIEWSTYLE
  5
6B
102
{ACAD_XDICTIONARY
360
E4
102
}
102
{ACAD_REACTORS
330
6A
102
}
330
6A
100
AcDbModelDocViewStyle
 70
     0
  3
Imperial24
290
     0
100
AcDbDetailViewStyle
 70
     0
 71
     0
 90
        3
 71
     1
340
55
 62
   256
 40
0.24
340
0
 62
   256
 40
0.24
300

 40
0.36
280
     3
 71
     2
340
5D
 90
       25
 62
   256
 71
     3
340
55
 62
   256
 40
0.24
 90
        1
 40
0.75
 90
        1
300
%<\AcVar ViewType \f "%tc1">% %<\AcVar ViewDetailId>%\PSCALE %<\AcVar ViewScale \f "%sn">%
 71
     4
340
5D
 90
       25
 62
   256
340
5D
 90
       25
 62
   256
280
     0
  0
LAYOUT
  5
6F
102
{ACAD_REACTORS
330
62
102
}
330
62
100
AcDbPlotSettings
  1

  2

  4

  6

 40
0.0
 41
0.0
 42
0.0
 43
0.0
 44
0.0
 45
0.0
 46
0.0
 47
0.0
 48
0.0
 49
0.0
140
0.0
141
0.0
142
1.0
143
1.0
 70
   688
 72
     0
 73
     0
 74
     5
  7

 75
    16
147
1.0
 76
     0
 77
     2
 78
   300
148
0.0
149
0.0
100
AcDbLayout
  1
Layout1
 70
     1
 71
     1
 10
0.0
 20
0.0
 11
12.0
 21
9.0
 12
0.0
 22
0.0
 32
0.0
 14
0.0
 24
0.0
 34
0.0
 15
0.0
 25
0.0
 35
0.0
146
0.0
 13
0.0
 23
0.0
 33
0.0
 16
1.0
 26
0.0
 36
0.0
 17
0.0
 27
1.0
 37
0.0
 76
     0
330
6C
  0
LAYOUT
  5
77
102
{ACAD_REACTORS
330
62
102
}
330
62
100
AcDbPlotSettings
  1

  2

  4

  6

 40
0.0
 41
0.0
 42
0.0
 43
0.0
 44
0.0
 45
0.0
 46
0.0
 47
0.0
 48
0.0
 49
0.0
140
0.0
141
0.0
142
1.0
143
1.0
 70
   688
 72
     0
 73
     0
 74
     5
  7

 75
    16
147
1.0
 76
     0
 77
     2
 78
   300
148
0.0
149
0.0
100
AcDbLayout
  1
Layout2
 70
     1
 71
     2
 10
0.0
 20
0.0
 11
12.0
 21
9.0
 12
0.0
 22
0.0
 32
0.0
 14
0.0
 24
0.0
 34
0.0
 15
0.0
 25
0.0
 35
0.0
146
0.0
 13
0.0
 23
0.0
 33
0.0
 16
1.0
 26
0.0
 36
0.0
 17
0.0
 27
1.0
 37
0.0
 76
     0
330
74
  0
LAYOUT
  5
73
102
{ACAD_REACTORS
330
62
102
}
330
62
100
AcDbPlotSettings
  1

  2

  4

  6

 40
0.0
 41
0.0
 42
0.0
 43
0.0
 44
0.0
 45
0.0
 46
0.0
 47
0.0
 48
0.0
 49
0.0
140
0.0
141
0.0
142
1.0
143
1.0
 70
  1712
 72
     0
 73
     0
 74
     0
  7

 75
     0
147
1.0
 76
     0
 77
     2
 78
   300
148
0.0
149
0.0
100
AcDbLayout
  1
Model
 70
     1
 71
     0
 10
0.0
 20
0.0
 11
12.0
 21
9.0
 12
0.0
 22
0.0
 32
0.0
 14
0.0
 24
0.0
 34
0.0
 15
0.0
 25
0.0
 35
0.0
146
0.0
 13
0.0
 23
0.0
 33
0.0
 16
1.0
 26
0.0
 36
0.0
 17
0.0
 27
1.0
 37
0.0
 76
     0
330
70
  0
MATERIAL
  5
19
102
{ACAD_XDICTIONARY
360
1A
102
}
102
{ACAD_REACTORS
330
10
102
}
330
10
100
AcDbMaterial
  1
ByBlock
 72
     0
 43
0.0208333333333333
 43
0.0
 43
0.0
 43
0.0
 43
0.0
 43
0.0208333333333333
 43
0.0
 43
0.0
 43
0.0
 43
0.0
 43
1.0
 43
0.0
 43
0.0
 43
0.0
 43
0.0
 43
1.0
 77
     0
 47
0.0208333333333333
 47
0.0
 47
0.0
 47
0.0
 47
0.0
 47
0.0208333333333333
 47
0.0
 47
0.0
 47
0.0
 47
0.0
 47
1.0
 47
0.0
 47
0.0
 47
0.0
 47
0.0
 47
1.0
171
     0
 49
0.0208333333333333
 49
0.0
 49
0.0
 49
0.0
 49
0.0
 49
0.0208333333333333
 49
0.0
 49
0.0
 49
0.0
 49
0.0
 49
1.0
 49
0.0
 49
0.0
 49
0.0
 49
0.0
 49
1.0
175
     0
142
0.0208333333333333
142
0.0
142
0.0
142
0.0
142
0.0
142
0.0208333333333333
142
0.0
142
0.0
142
0.0
142
0.0
142
1.0
142
0.0
142
0.0
142
0.0
142
0.0
142
1.0
179
     0
144
0.0208333333333333
144
0.0
144
0.0
144
0.0
144
0.0
144
0.0208333333333333
144
0.0
144
0.0
144
0.0
144
0.0
144
1.0
144
0.0
144
0.0
144
0.0
144
0.0
144
1.0
147
0.0208333333333333
147
0.0
147
0.0
147
0.0
147
0.0
147
0.0208333333333333
147
0.0
147
0.0
147
0.0
147
0.0
147
1.0
147
0.0
147
0.0
147
0.0
147
0.0
147
1.0
  0
MATERIAL
  5
11
102
{ACAD_XDICTIONARY
360
12
102
}
102
{ACAD_REACTORS
330
10
102
}
330
10
100
AcDbMaterial
  1
ByLayer
 72
     0
 43
0.0208333333333333
 43
0.0
 43
0.0
 43
0.0
 43
0.0
 43
0.0208333333333333
 43
0.0
 43
0.0
 43
0.0
 43
0.0
 43
1.0
 43
0.0
 43
0.0
 43
0.0
 43
0.0
 43
1.0
 77
     0
 47
0.0208333333333333
 47
0.0
 47
0.0
 47
0.0
 47
0.0
 47
0.0208333333333333
 47
0.0
 47
0.0
 47
0.0
 47
0.0
 47
1.0
 47
0.0
 47
0.0
 47
0.0
 47
0.0
 47
1.0
171
     0
 49
0.0208333333333333
 49
0.0
 49
0.0
 49
0.0
 49
0.0
 49
0.0208333333333333
 49
0.0
 49
0.0
 49
0.0
 49
0.0
 49
1.0
 49
0.0
 49
0.0
 49
0.0
 49
0.0
 49
1.0
175
     0
142
0.0208333333333333
142
0.0
142
0.0
142
0.0
142
0.0
142
0.0208333333333333
142
0.0
142
0.0
142
0.0
142
0.0
142
1.0
142
0.0
142
0.0
142
0.0
142
0.0
142
1.0
179
     0
144
0.0208333333333333
144
0.0
144
0.0
144
0.0
144
0.0
144
0.0208333333333333
144
0.0
144
0.0
144
0.0
144
0.0
144
1.0
144
0.0
144
0.0
144
0.0
144
0.0
144
1.0
147
0.0208333333333333
147
0.0
147
0.0
147
0.0
147
0.0
147
0.0208333333333333
147
0.0
147
0.0
147
0.0
147
0.0
147
1.0
147
0.0
147
0.0
147
0.0
147
0.0
147
1.0
  0
MATERIAL
  5
21
102
{ACAD_XDICTIONARY
360
22
102
}
102
{ACAD_REACTORS
330
10
102
}
330
10
100
AcDbMaterial
  1
Global
 72
     0
 43
0.0208333333333333
 43
0.0
 43
0.0
 43
0.0
 43
0.0
 43
0.0208333333333333
 43
0.0
 43
0.0
 43
0.0
 43
0.0
 43
1.0
 43
0.0
 43
0.0
 43
0.0
 43
0.0
 43
1.0
 77
     0
 47
0.0208333333333333
 47
0.0
 47
0.0
 47
0.0
 47
0.0
 47
0.0208333333333333
 47
0.0
 47
0.0
 47
0.0
 47
0.0
 47
1.0
 47
0.0
 47
0.0
 47
0.0
 47
0.0
 47
1.0
171
     0
 49
0.0208333333333333
 49
0.0
 49
0.0
 49
0.0
 49
0.0
 49
0.0208333333333333
 49
0.0
 49
0.0
 49
0.0
 49
0.0
 49
1.0
 49
0.0
 49
0.0
 49
0.0
 49
0.0
 49
1.0
175
     0
142
0.0208333333333333
142
0.0
142
0.0
142
0.0
142
0.0
142
0.0208333333333333
142
0.0
142
0.0
142
0.0
142
0.0
142
1.0
142
0.0
142
0.0
142
0.0
142
0.0
142
1.0
179
     0
144
0.0208333333333333
144
0.0
144
0.0
144
0.0
144
0.0
144
0.0208333333333333
144
0.0
144
0.0
144
0.0
144
0.0
144
1.0
144
0.0
144
0.0
144
0.0
144
0.0
144
1.0
147
0.0208333333333333
147
0.0
147
0.0
147
0.0
147
0.0
147
0.0208333333333333
147
0.0
147
0.0
147
0.0
147
0.0
147
1.0
147
0.0
147
0.0
147
0.0
147
0.0
147
1.0
  0
MLEADERSTYLE
  5
67
102
{ACAD_XDICTIONARY
360
E0
102
}
102
{ACAD_REACTORS
330
66
102
}
330
66
100
AcDbMLeaderStyle
179
     2
170
     2
171
     1
172
     0
 90
        2
 40
0.0
 41
0.0
173
     1
 91
-1056964608
340
5B
 92
       -2
290
     1
 42
0.09
291
     1
 43
0.36
  3
Standard
 44
0.18
300

342
55
174
     1
178
     6
175
     1
176
     0
 93
-1056964608
 45
0.18
292
     0
297
     0
 46
0.18
 94
-1056964608
 47
1.0
 49
1.0
140
1.0
293
     1
141
0.0
294
     1
177
     0
142
1.0
295
     0
296
     0
143
0.125
271
     0
272
     9
273
     9
  0
MLINESTYLE
  5
60
102
{ACAD_REACTORS
330
5F
102
}
330
5F
100
AcDbMlineStyle
  2
STANDARD
 70
     0
  3

 62
   256
 51
90.0
 52
90.0
 71
     2
 49
0.5
 62
   256
  6
BYLAYER
 49
-0.5
 62
   256
  6
BYLAYER
  0
ACDBPLACEHOLDER
  5
F
102
{ACAD_REACTORS
330
E
102
}
330
E
  0
SCALE
  5
43
102
{ACAD_REACTORS
330
42
102
}
330
42
100
AcDbScale
 70
     0
300
1:1
140
1.0
141
1.0
290
     1
  0
SCALE
  5
44
102
{ACAD_REACTORS
330
42
102
}
330
42
100
AcDbScale
 70
     0
300
1/128" = 1'-0"
140
0.0078125
141
12.0
290
     0
  0
SCALE
  5
45
102
{ACAD_REACTORS
330
42
102
}
330
42
100
AcDbScale
 70
     0
300
1/64" = 1'-0"
140
0.015625
141
12.0
290
     0
  0
SCALE
  5
46
102
{ACAD_REACTORS
330
42
102
}
330
42
100
AcDbScale
 70
     0
300
1/32" = 1'-0"
140
0.03125
141
12.0
290
     0
  0
SCALE
  5
47
102
{ACAD_REACTORS
330
42
102
}
330
42
100
AcDbScale
 70
     0
300
1/16" = 1'-0"
140
0.0625
141
12.0
290
     0
  0
SCALE
  5
48
102
{ACAD_REACTORS
330
42
102
}
330
42
100
AcDbScale
 70
     0
300
3/32" = 1'-0"
140
0.09375
141
12.0
290
     0
  0
SCALE
  5
49
102
{ACAD_REACTORS
330
42
102
}
330
42
100
AcDbScale
 70
     0
300
1/8" = 1'-0"
140
0.125
141
12.0
290
     0
  0
SCALE
  5
4A
102
{ACAD_REACTORS
330
42
102
}
330
42
100
AcDbScale
 70
     0
300
3/16" = 1'-0"
140
0.1875
141
12.0
290
     0
  0
SCALE
  5
4B
102
{ACAD_REACTORS
330
42
102
}
330
42
100
AcDbScale
 70
     0
300
1/4" = 1'-0"
140
0.25
141
12.0
290
     0
  0
SCALE
  5
4C
102
{ACAD_REACTORS
330
42
102
}
330
42
100
AcDbScale
 70
     0
300
3/8" = 1'-0"
140
0.375
141
12.0
290
     0
  0
SCALE
  5
4D
102
{ACAD_REACTORS
330
42
102
}
330
42
100
AcDbScale
 70
     0
300
1/2" = 1'-0"
140
0.5
141
12.0
290
     0
  0
SCALE
  5
4E
102
{ACAD_REACTORS
330
42
102
}
330
42
100
AcDbScale
 70
     0
300
3/4" = 1'-0"
140
0.75
141
12.0
290
     0
  0
SCALE
  5
4F
102
{ACAD_REACTORS
330
42
102
}
330
42
100
AcDbScale
 70
     0
300
1" = 1'-0"
140
1.0
141
12.0
290
     0
  0
SCALE
  5
50
102
{ACAD_REACTORS
330
42
102
}
330
42
100
AcDbScale
 70
     0
300
1-1/2" = 1'-0"
140
1.5
141
12.0
290
     0
  0
SCALE
  5
51
102
{ACAD_REACTORS
330
42
102
}
330
42
100
AcDbScale
 70
     0
300
3" = 1'-0"
140
3.0
141
12.0
290
     0
  0
SCALE
  5
52
102
{ACAD_REACTORS
330
42
102
}
330
42
100
AcDbScale
 70
     0
300
6" = 1'-0"
140
6.0
141
12.0
290
     0
  0
SCALE
  5
53
102
{ACAD_REACTORS
330
42
102
}
330
42
100
AcDbScale
 70
     0
300
1'-0" = 1'-0"
140
12.0
141
12.0
290
     0
  0
ACDBSECTIONVIEWSTYLE
  5
69
102
{ACAD_XDICTIONARY
360
E2
102
}
102
{ACAD_REACTORS
330
68
102
}
330
68
100
AcDbModelDocViewStyle
 70
     0
  3
Imperial24
290
     0
100
AcDbSectionViewStyle
 70
     0
 71
     0
 90
       78
 71
     1
340
55
 62
   256
 40
0.24
340
0
340
0
 62
   256
 40
0.24
300
I, O, Q, S, X, Z
 40
0.48
 90
        3
 40
0.18
 90
        1
 71
     2
340
5D
 90
       25
 62
   256
340
5D
 90
       50
 62
   256
 40
0.24
 40
0.0
 40
0.24
 71
     3
340
55
 62
   256
 40
0.24
 90
        1
 40
0.75
 90
        1
300
%<\AcVar ViewType \f "%tc1">% %<\AcVar ViewSectionStartId>%-%<\AcVar ViewSectionEndId>%\PSCALE %<\AcVar ViewScale \f "%sn">%
 71
     4
 62
   256
 62
   257
300
ANSI31
 40
1.0
 90
        0
290
     0
290
     0
 90
        6
 40
0.0
 40
1.570796326794896
 40
0.2617993877991494
 40
1.308996938995747
 40
-0.2617993877991494
 40
1.832595714594046
  0
TABLESTYLE
  5
65
102
{ACAD_XDICTIONARY
360
AD
102
}
102
{ACAD_REACTORS
330
64
102
}
330
64
100
AcDbTableStyle
280
     0
  3
Standard
 70
     0
 71
     0
 40
0.06
 41
0.06
280
     0
281
     0
  7
Standard
140
0.18
170
     2
 62
     0
 63
     7
283
     0
 90
      512
 91
        0
  1

274
    -2
284
     1
 64
     0
275
    -2
285
     1
 65
     0
276
    -2
286
     1
 66
     0
277
    -2
287
     1
 67
     0
278
    -2
288
     1
 68
     0
279
    -2
289
     1
 69
     0
  7
Standard
140
0.25
170
     5
 62
     0
 63
     7
283
     0
 90
      512
 91
        0
  1

274
    -2
284
     1
 64
     0
275
    -2
285
     1
 65
     0
276
    -2
286
     1
 66
     0
277
    -2
287
     1
 67
     0
278
    -2
288
     1
 68
     0
279
    -2
289
     1
 69
     0
  7
Standard
140
0.18
170
     5
 62
     0
 63
     7
283
     0
 90
      512
 91
        0
  1

274
    -2
284
     1
 64
     0
275
    -2
285
     1
 65
     0
276
    -2
286
     1
 66
     0
277
    -2
287
     1
 67
     0
278
    -2
288
     1
 68
     0
279
    -2
289
     1
 69
     0
  0
VISUALSTYLE
  5
2F
102
{ACAD_XDICTIONARY
360
BA
102
}
102
{ACAD_REACTORS
330
29
102
}
330
29
100
AcDbVisualStyle
  2
2dWireframe
 70
     4
177
     2
291
     0
 71
     0
176
     1
 72
     2
176
     1
 73
     0
176
     1
 90
        0
176
     1
 40
0.6
176
     1
 41
30.0
176
     1
 63
     7
421
 16777215
176
     1
 74
     1
176
     1
 91
        4
176
     1
 64
     7
176
     1
 65
   257
176
     1
 75
     1
176
     1
175
     1
176
     1
 42
1.0
176
     1
 92
        0
176
     1
 66
   257
176
     1
 43
1.0
176
     1
 76
     1
176
     1
 77
     6
176
     1
 78
     2
176
     1
 67
     7
176
     1
 79
     5
176
     1
170
     0
176
     1
171
     0
176
     1
290
     0
176
     1
 93
        1
176
     1
 44
0.0
176
     1
173
     0
176
     1
1001
ACAD
1000
AcDbSavedByObjectVersion
1070
     0
  0
VISUALSTYLE
  5
2E
102
{ACAD_XDICTIONARY
360
B8
102
}
102
{ACAD_REACTORS
330
29
102
}
330
29
100
AcDbVisualStyle
  2
Basic
 70
     7
177
     2
291
     1
 71
     1
176
     1
 72
     0
176
     1
 73
     1
176
     1
 90
        0
176
     1
 40
0.6
176
     1
 41
30.0
176
     1
 63
     7
421
 16777215
176
     1
 74
     0
176
     1
 91
        4
176
     1
 64
     7
176
     1
 65
   257
176
     1
 75
     1
176
     1
175
     1
176
     1
 42
1.0
176
     1
 92
        8
176
     1
 66
     7
176
     1
 43
1.0
176
     1
 76
     1
176
     1
 77
     6
176
     1
 78
     2
176
     1
 67
     7
176
     1
 79
     5
176
     1
170
     0
176
     1
171
     0
176
     1
290
     0
176
     1
 93
        1
176
     1
 44
0.0
176
     1
173
     0
176
     1
1001
ACAD
1000
AcDbSavedByObjectVersion
1070
     0
  0
VISUALSTYLE
  5
35
102
{ACAD_XDICTIONARY
360
C6
102
}
102
{ACAD_REACTORS
330
29
102
}
330
29
100
AcDbVisualStyle
  2
Brighten
 70
    12
177
     2
291
     1
 71
     2
176
     1
 72
     2
176
     1
 73
     0
176
     1
 90
        0
176
     1
 40
0.6
176
     1
 41
30.0
176
     1
 63
     7
421
 16777215
176
     1
 74
     1
176
     1
 91
        4
176
     1
 64
     7
176
     1
 65
   257
176
     1
 75
     1
176
     1
175
     1
176
     1
 42
1.0
176
     1
 92
        8
176
     1
 66
     7
176
     1
 43
1.0
176
     1
 76
     1
176
     1
 77
     6
176
     1
 78
     2
176
     1
 67
     7
176
     1
 79
     5
176
     1
170
     0
176
     1
171
     0
176
     1
290
     0
176
     1
 93
        1
176
     1
 44
50.0
176
     1
173
     0
176
     1
1001
ACAD
1000
AcDbSavedByObjectVersion
1070
     0
  0
VISUALSTYLE
  5
39
102
{ACAD_XDICTIONARY
360
CE
102
}
102
{ACAD_REACTORS
330
29
102
}
330
29
100
AcDbVisualStyle
  2
ColorChange
 70
    16
177
     2
291
     1
 71
     2
176
     1
 72
     2
176
     1
 73
     3
176
     1
 90
        0
176
     1
 40
0.6
176
     1
 41
30.0
176
     1
 63
     8
421
  8421504
176
     1
 74
     1
176
     1
 91
        4
176
     1
 64
     7
176
     1
 65
   257
176
     1
 75
     1
176
     1
175
     1
176
     1
 42
1.0
176
     1
 92
        8
176
     1
 66
     8
424
  8421504
176
     1
 43
1.0
176
     1
 76
     1
176
     1
 77
     6
176
     1
 78
     2
176
     1
 67
     7
176
     1
 79
     5
176
     1
170
     0
176
     1
171
     0
176
     1
290
     0
176
     1
 93
        1
176
     1
 44
0.0
176
     1
173
     0
176
     1
1001
ACAD
1000
AcDbSavedByObjectVersion
1070
     0
  0
VISUALSTYLE
  5
32
102
{ACAD_XDICTIONARY
360
C0
102
}
102
{ACAD_REACTORS
330
29
102
}
330
29
100
AcDbVisualStyle
  2
Conceptual
 70
     9
177
     2
291
     0
 71
     3
176
     1
 72
     2
176
     1
 73
     0
176
     1
 90
        0
176
     1
 40
0.6
176
     1
 41
30.0
176
     1
 63
     7
421
 16777215
176
     1
 74
     2
176
     1
 91
        2
176
     1
 64
     7
176
     1
 65
   257
176
     1
 75
     1
176
     1
175
     1
176
     1
 42
179.0
176
     1
 92
        8
176
     1
 66
     7
176
     1
 43
1.0
176
     1
 76
     1
176
     1
 77
     6
176
     1
 78
     2
176
     1
 67
     7
176
     1
 79
     3
176
     1
170
     0
176
     1
171
     0
176
     1
290
     0
176
     1
 93
        1
176
     1
 44
0.0
176
     1
173
     0
176
     1
1001
ACAD
1000
AcDbSavedByObjectVersion
1070
     0
  0
VISUALSTYLE
  5
34
102
{ACAD_XDICTIONARY
360
C4
102
}
102
{ACAD_REACTORS
330
29
102
}
330
29
100
AcDbVisualStyle
  2
Dim
 70
    11
177
     2
291
     1
 71
     2
176
     1
 72
     2
176
     1
 73
     0
176
     1
 90
        0
176
     1
 40
0.6
176
     1
 41
30.0
176
     1
 63
     7
421
 16777215
176
     1
 74
     1
176
     1
 91
        4
176
     1
 64
     7
176
     1
 65
   257
176
     1
 75
     1
176
     1
175
     1
176
     1
 42
1.0
176
     1
 92
        8
176
     1
 66
     7
176
     1
 43
1.0
176
     1
 76
     1
176
     1
 77
     6
176
     1
 78
     2
176
     1
 67
     7
176
     1
 79
     5
176
     1
170
     0
176
     1
171
     0
176
     1
290
     0
176
     1
 93
        1
176
     1
 44
-50.0
176
     1
173
     0
176
     1
1001
ACAD
1000
AcDbSavedByObjectVersion
1070
     0
  0
VISUALSTYLE
  5
41
102
{ACAD_XDICTIONARY
360
DE
102
}
102
{ACAD_REACTORS
330
29
102
}
330
29
100
AcDbVisualStyle
  2
EdgeColorOff
 70
    22
177
     2
291
     1
 71
     2
176
     0
 72
     2
176
     0
 73
     0
176
     0
 90
        0
176
     0
 40
0.6
176
     0
 41
30.0
176
     0
 63
     7
421
 16777215
176
     0
 74
     1
176
     0
 91
        4
176
     0
 64
     7
176
     0
 65
   257
176
     0
 75
     1
176
     0
175
     1
176
     0
 42
1.0
176
     0
 92
        8
176
     2
 66
     7
176
     0
 43
1.0
176
     0
 76
     1
176
     0
 77
     6
176
     0
 78
     2
176
     0
 67
     7
176
     0
 79
     5
176
     0
170
     0
176
     0
171
     0
176
     0
290
     0
176
     0
 93
        1
176
     0
 44
0.0
176
     0
173
     0
176
     0
1001
ACAD
1000
AcDbSavedByObjectVersion
1070
     0
  0
VISUALSTYLE
  5
38
102
{ACAD_XDICTIONARY
360
CC
102
}
102
{ACAD_REACTORS
330
29
102
}
330
29
100
AcDbVisualStyle
  2
Facepattern
 70
    15
177
     2
291
     1
 71
     2
176
     1
 72
     2
176
     1
 73
     0
176
     1
 90
        0
176
     1
 40
0.6
176
     1
 41
30.0
176
     1
 63
     7
421
 16777215
176
     1
 74
     1
176
     1
 91
        4
176
     1
 64
     7
176
     1
 65
   257
176
     1
 75
     1
176
     1
175
     1
176
     1
 42
1.0
176
     1
 92
        8
176
     1
 66
     7
176
     1
 43
1.0
176
     1
 76
     1
176
     1
 77
     6
176
     1
 78
     2
176
     1
 67
     7
176
     1
 79
     5
176
     1
170
     0
176
     1
171
     0
176
     1
290
     0
176
     1
 93
        1
176
     1
 44
0.0
176
     1
173
     0
176
     1
1001
ACAD
1000
AcDbSavedByObjectVersion
1070
     0
  0
VISUALSTYLE
  5
2A
102
{ACAD_XDICTIONARY
360
B0
102
}
102
{ACAD_REACTORS
330
29
102
}
330
29
100
AcDbVisualStyle
  2
Flat
 70
     0
177
     2
291
     1
 71
     2
176
     1
 72
     1
176
     1
 73
     1
176
     1
 90
        2
176
     1
 40
0.6
176
     1
 41
30.0
176
     1
 63
     7
421
 16777215
176
     1
 74
     0
176
     1
 91
        0
176
     1
 64
     7
176
     1
 65
   257
176
     1
 75
     1
176
     1
175
     1
176
     1
 42
1.0
176
     1
 92
        8
176
     1
 66
     7
176
     1
 43
1.0
176
     1
 76
     1
176
     1
 77
     6
176
     1
 78
     2
176
     1
 67
     7
176
     1
 79
     5
176
     1
170
     0
176
     1
171
     0
176
     1
290
     0
176
     1
 93
       13
176
     1
 44
0.0
176
     1
173
     0
176
     1
1001
ACAD
1000
AcDbSavedByObjectVersion
1070
     0
  0
VISUALSTYLE
  5
2B
102
{ACAD_XDICTIONARY
360
B2
102
}
102
{ACAD_REACTORS
330
29
102
}
330
29
100
AcDbVisualStyle
  2
FlatWithEdges
 70
     1
177
     2
291
     1
 71
     2
176
     1
 72
     1
176
     1
 73
     1
176
     1
 90
        2
176
     1
 40
0.6
176
     1
 41
30.0
176
     1
 63
     7
421
 16777215
176
     1
 74
     1
176
     1
 91
        0
176
     1
 64
     7
176
     1
 65
   257
176
     1
 75
     1
176
     1
175
     1
176
     1
 42
1.0
176
     1
 92
        0
176
     1
 66
   257
176
     1
 43
1.0
176
     1
 76
     1
176
     1
 77
     6
176
     1
 78
     2
176
     1
 67
     7
176
     1
 79
     5
176
     1
170
     0
176
     1
171
     0
176
     1
290
     0
176
     1
 93
       13
176
     1
 44
0.0
176
     1
173
     0
176
     1
1001
ACAD
1000
AcDbSavedByObjectVersion
1070
     0
  0
VISUALSTYLE
  5
2C
102
{ACAD_XDICTIONARY
360
B4
102
}
102
{ACAD_REACTORS
330
29
102
}
330
29
100
AcDbVisualStyle
  2
Gouraud
 70
     2
177
     2
291
     1
 71
     2
176
     1
 72
     2
176
     1
 73
     1
176
     1
 90
        2
176
     1
 40
0.6
176
     1
 41
30.0
176
     1
 63
     7
421
 16777215
176
     1
 74
     0
176
     1
 91
        0
176
     1
 64
     7
176
     1
 65
   257
176
     1
 75
     1
176
     1
175
     1
176
     1
 42
1.0
176
     1
 92
        0
176
     1
 66
     7
176
     1
 43
1.0
176
     1
 76
     1
176
     1
 77
     6
176
     1
 78
     2
176
     1
 67
     7
176
     1
 79
     5
176
     1
170
     0
176
     1
171
     0
176
     1
290
     0
176
     1
 93
       13
176
     1
 44
0.0
176
     1
173
     0
176
     1
1001
ACAD
1000
AcDbSavedByObjectVersion
1070
     0
  0
VISUALSTYLE
  5
2D
102
{ACAD_XDICTIONARY
360
B6
102
}
102
{ACAD_REACTORS
330
29
102
}
330
29
100
AcDbVisualStyle
  2
GouraudWithEdges
 70
     3
177
     2
291
     1
 71
     2
176
     1
 72
     2
176
     1
 73
     1
176
     1
 90
        2
176
     1
 40
0.6
176
     1
 41
30.0
176
     1
 63
     7
421
 16777215
176
     1
 74
     1
176
     1
 91
        0
176
     1
 64
     7
176
     1
 65
   257
176
     1
 75
     1
176
     1
175
     1
176
     1
 42
1.0
176
     1
 92
        0
176
     1
 66
   257
176
     1
 43
1.0
176
     1
 76
     1
176
     1
 77
     6
176
     1
 78
     2
176
     1
 67
     7
176
     1
 79
     5
176
     1
170
     0
176
     1
171
     0
176
     1
290
     0
176
     1
 93
       13
176
     1
 44
0.0
176
     1
173
     0
176
     1
1001
ACAD
1000
AcDbSavedByObjectVersion
1070
     0
  0
VISUALSTYLE
  5
31
102
{ACAD_XDICTIONARY
360
BE
102
}
102
{ACAD_REACTORS
330
29
102
}
330
29
100
AcDbVisualStyle
  2
Hidden
 70
     6
177
     2
291
     0
 71
     1
176
     1
 72
     2
176
     1
 73
     2
176
     1
 90
        0
176
     1
 40
0.6
176
     1
 41
30.0
176
     1
 63
     7
421
 16777215
176
     1
 74
     2
176
     1
 91
        2
176
     1
 64
     7
176
     1
 65
   257
176
     1
 75
     2
176
     1
175
     1
176
     1
 42
40.0
176
     1
 92
        0
176
     1
 66
   257
176
     1
 43
1.0
176
     1
 76
     1
176
     1
 77
     6
176
     1
 78
     2
176
     1
 67
     7
176
     1
 79
     3
176
     1
170
     0
176
     1
171
     0
176
     1
290
     0
176
     1
 93
        1
176
     1
 44
0.0
176
     1
173
     0
176
     1
1001
ACAD
1000
AcDbSavedByObjectVersion
1070
     0
  0
VISUALSTYLE
  5
3F
102
{ACAD_XDICTIONARY
360
DA
102
}
102
{ACAD_REACTORS
330
29
102
}
330
29
100
AcDbVisualStyle
  2
JitterOff
 70
    20
177
     2
291
     1
 71
     2
176
     0
 72
     2
176
     0
 73
     0
176
     0
 90
        0
176
     0
 40
0.6
176
     0
 41
30.0
176
     0
 63
     7
421
 16777215
176
     0
 74
     1
176
     0
 91
        4
176
     0
 64
     7
176
     0
 65
   257
176
     0
 75
     1
176
     0
175
     1
176
     0
 42
1.0
176
     0
 92
       10
176
     2
 66
     7
176
     0
 43
1.0
176
     0
 76
     1
176
     0
 77
     6
176
     0
 78
     2
176
     0
 67
     7
176
     0
 79
     5
176
     0
170
     0
176
     0
171
     0
176
     0
290
     0
176
     0
 93
        1
176
     0
 44
0.0
176
     0
173
     0
176
     0
1001
ACAD
1000
AcDbSavedByObjectVersion
1070
     0
  0
VISUALSTYLE
  5
37
102
{ACAD_XDICTIONARY
360
CA
102
}
102
{ACAD_REACTORS
330
29
102
}
330
29
100
AcDbVisualStyle
  2
Linepattern
 70
    14
177
     2
291
     1
 71
     2
176
     1
 72
     2
176
     1
 73
     0
176
     1
 90
        0
176
     1
 40
0.6
176
     1
 41
30.0
176
     1
 63
     7
421
 16777215
176
     1
 74
     1
176
     1
 91
        4
176
     1
 64
     7
176
     1
 65
   257
176
     1
 75
     7
176
     1
175
     7
176
     1
 42
1.0
176
     1
 92
        8
176
     1
 66
     7
176
     1
 43
1.0
176
     1
 76
     1
176
     1
 77
     6
176
     1
 78
     2
176
     1
 67
     7
176
     1
 79
     5
176
     1
170
     0
176
     1
171
     0
176
     1
290
     0
176
     1
 93
        1
176
     1
 44
0.0
176
     1
173
     0
176
     1
1001
ACAD
1000
AcDbSavedByObjectVersion
1070
     0
  0
VISUALSTYLE
  5
40
102
{ACAD_XDICTIONARY
360
DC
102
}
102
{ACAD_REACTORS
330
29
102
}
330
29
100
AcDbVisualStyle
  2
OverhangOff
 70
    21
177
     2
291
     1
 71
     2
176
     0
 72
     2
176
     0
 73
     0
176
     0
 90
        0
176
     0
 40
0.6
176
     0
 41
30.0
176
     0
 63
     7
421
 16777215
176
     0
 74
     1
176
     0
 91
        4
176
     0
 64
     7
176
     0
 65
   257
176
     0
 75
     1
176
     0
175
     1
176
     0
 42
1.0
176
     0
 92
        9
176
     2
 66
     7
176
     0
 43
1.0
176
     0
 76
     1
176
     0
 77
     6
176
     0
 78
     2
176
     0
 67
     7
176
     0
 79
     5
176
     0
170
     0
176
     0
171
     0
176
     0
290
     0
176
     0
 93
        1
176
     0
 44
0.0
176
     0
173
     0
176
     0
1001
ACAD
1000
AcDbSavedByObjectVersion
1070
     0
  0
VISUALSTYLE
  5
33
102
{ACAD_XDICTIONARY
360
C2
102
}
102
{ACAD_REACTORS
330
29
102
}
330
29
100
AcDbVisualStyle
  2
Realistic
 70
     8
177
     2
291
     0
 71
     2
176
     1
 72
     3
176
     1
 73
     0
176
     1
 90
        2
176
     1
 40
0.6
176
     1
 41
30.0
176
     1
 63
     7
421
 16777215
176
     1
 74
     0
176
     1
 91
        0
176
     1
 64
     7
176
     1
 65
   257
176
     1
 75
     1
176
     1
175
     1
176
     1
 42
1.0
176
     1
 92
        8
176
     1
 66
   257
176
     1
 43
1.0
176
     1
 76
     1
176
     1
 77
     6
176
     1
 78
     2
176
     1
 67
     7
176
     1
 79
     3
176
     1
170
     0
176
     1
171
     0
176
     1
290
     0
176
     1
 93
       13
176
     1
 44
0.0
176
     1
173
     0
176
     1
1001
ACAD
1000
AcDbSavedByObjectVersion
1070
     0
  0
VISUALSTYLE
  5
3E
102
{ACAD_XDICTIONARY
360
D8
102
}
102
{ACAD_REACTORS
330
29
102
}
330
29
100
AcDbVisualStyle
  2
Shaded
 70
    27
177
     2
291
     0
 71
     2
176
     1
 72
     2
176
     1
 73
     1
176
     1
 90
        2
176
     1
 40
0.6
176
     1
 41
30.0
176
     1
 63
     7
421
 16777215
176
     1
 74
     0
176
     1
 91
        4
176
     1
 64
     7
176
     1
 65
   257
176
     1
 75
     1
176
     1
175
     1
176
     1
 42
1.0
176
     1
 92
        8
176
     1
 66
   257
176
     1
 43
1.0
176
     1
 76
     1
176
     1
 77
     6
176
     1
 78
     2
176
     1
 67
     8
425
  7895160
176
     1
 79
     3
176
     1
170
     0
176
     1
171
     0
176
     1
290
     0
176
     1
 93
        5
176
     1
 44
0.0
176
     1
173
     0
176
     1
1001
ACAD
1000
AcDbSavedByObjectVersion
1070
     0
  0
VISUALSTYLE
  5
3D
102
{ACAD_XDICTIONARY
360
D6
102
}
102
{ACAD_REACTORS
330
29
102
}
330
29
100
AcDbVisualStyle
  2
Shaded with edges
 70
    26
177
     2
291
     0
 71
     2
176
     1
 72
     2
176
     1
 73
     1
176
     1
 90
        2
176
     1
 40
0.6
176
     1
 41
30.0
176
     1
 63
     7
421
 16777215
176
     1
 74
     1
176
     1
 91
        2
176
     1
 64
     7
176
     1
 65
   257
176
     1
 75
     2
176
     1
175
     1
176
     1
 42
1.0
176
     1
 92
        8
176
     1
 66
   257
176
     1
 43
1.0
176
     1
 76
     1
176
     1
 77
     6
176
     1
 78
     2
176
     1
 67
     7
176
     1
 79
     3
176
     1
170
     0
176
     1
171
     0
176
     1
290
     0
176
     1
 93
        5
176
     1
 44
0.0
176
     1
173
     0
176
     1
1001
ACAD
1000
AcDbSavedByObjectVersion
1070
     0
  0
VISUALSTYLE
  5
3A
102
{ACAD_XDICTIONARY
360
D0
102
}
102
{ACAD_REACTORS
330
29
102
}
330
29
100
AcDbVisualStyle
  2
Shades of Gray
 70
    23
177
     2
291
     0
 71
     2
176
     1
 72
     2
176
     1
 73
     3
176
     1
 90
        0
176
     1
 40
0.6
176
     1
 41
30.0
176
     1
 63
     7
421
 16777215
176
     1
 74
     2
176
     1
 91
        2
176
     1
 64
     7
176
     1
 65
     7
176
     1
 75
     1
176
     1
175
     1
176
     1
 42
40.0
176
     1
 92
        8
176
     1
 66
     7
176
     1
 43
1.0
176
     1
 76
     1
176
     1
 77
     6
176
     1
 78
     2
176
     1
 67
     7
176
     1
 79
     3
176
     1
170
     0
176
     1
171
     0
176
     1
290
     0
176
     1
 93
        1
176
     1
 44
0.0
176
     1
173
     0
176
     1
1001
ACAD
1000
AcDbSavedByObjectVersion
1070
     0
  0
VISUALSTYLE
  5
3B
102
{ACAD_XDICTIONARY
360
D2
102
}
102
{ACAD_REACTORS
330
29
102
}
330
29
100
AcDbVisualStyle
  2
Sketchy
 70
    24
177
     2
291
     0
 71
     1
176
     1
 72
     2
176
     1
 73
     2
176
     1
 90
        0
176
     1
 40
0.6
176
     1
 41
30.0
176
     1
 63
     7
421
 16777215
176
     1
 74
     2
176
     1
 91
        2
176
     1
 64
     7
176
     1
 65
     7
176
     1
 75
     1
176
     1
175
     1
176
     1
 42
40.0
176
     1
 92
       11
176
     1
 66
     7
176
     1
 43
1.0
176
     1
 76
     1
176
     1
 77
     6
176
     1
 78
     2
176
     1
 67
     7
176
     1
 79
     6
176
     1
170
     0
176
     1
171
     0
176
     1
290
     0
176
     1
 93
        1
176
     1
 44
0.0
176
     1
173
     0
176
     1
1001
ACAD
1000
AcDbSavedByObjectVersion
1070
     0
  0
VISUALSTYLE
  5
36
102
{ACAD_XDICTIONARY
360
C8
102
}
102
{ACAD_REACTORS
330
29
102
}
330
29
100
AcDbVisualStyle
  2
Thicken
 70
    13
177
     2
291
     1
 71
     2
176
     1
 72
     2
176
     1
 73
     0
176
     1
 90
        0
176
     1
 40
0.6
176
     1
 41
30.0
176
     1
 63
     7
421
 16777215
176
     1
 74
     1
176
     1
 91
        4
176
     1
 64
     7
176
     1
 65
   257
176
     1
 75
     1
176
     1
175
     1
176
     1
 42
1.0
176
     1
 92
       12
176
     1
 66
     7
176
     1
 43
1.0
176
     1
 76
     1
176
     1
 77
     6
176
     1
 78
     2
176
     1
 67
     7
176
     1
 79
     5
176
     1
170
     0
176
     1
171
     0
176
     1
290
     0
176
     1
 93
        1
176
     1
 44
0.0
176
     1
173
     0
176
     1
1001
ACAD
1000
AcDbSavedByObjectVersion
1070
     0
  0
VISUALSTYLE
  5
30
102
{ACAD_XDICTIONARY
360
BC
102
}
102
{ACAD_REACTORS
330
29
102
}
330
29
100
AcDbVisualStyle
  2
Wireframe
 70
     5
177
     2
291
     0
 71
     0
176
     1
 72
     2
176
     1
 73
     0
176
     1
 90
        0
176
     1
 40
0.6
176
     1
 41
30.0
176
     1
 63
     7
421
 16777215
176
     1
 74
     1
176
     1
 91
        4
176
     1
 64
     7
176
     1
 65
   257
176
     1
 75
     1
176
     1
175
     1
176
     1
 42
1.0
176
     1
 92
        0
176
     1
 66
   257
176
     1
 43
1.0
176
     1
 76
     1
176
     1
 77
     6
176
     1
 78
     2
176
     1
 67
     7
176
     1
 79
     3
176
     1
170
     0
176
     1
171
     0
176
     1
290
     0
176
     1
 93
        1
176
     1
 44
0.0
176
     1
173
     0
176
     1
1001
ACAD
1000
AcDbSavedByObjectVersion
1070
     0
  0
VISUALSTYLE
  5
3C
102
{ACAD_XDICTIONARY
360
D4
102
}
102
{ACAD_REACTORS
330
29
102
}
330
29
100
AcDbVisualStyle
  2
X-Ray
 70
    25
177
     2
291
     0
 71
     2
176
     1
 72
     2
176
     1
 73
     1
176
     1
 90
        1
176
     1
 40
0.5
176
     1
 41
30.0
176
     1
 63
     7
421
 16777215
176
     1
 74
     1
176
     1
 91
        0
176
     1
 64
     7
176
     1
 65
   257
176
     1
 75
     1
176
     1
175
     1
176
     1
 42
1.0
176
     1
 92
        8
176
     1
 66
     7
176
     1
 43
1.0
176
     1
 76
     1
176
     1
 77
     6
176
     1
 78
     2
176
     1
 67
     7
176
     1
 79
     3
176
     1
170
     0
176
     1
171
     0
176
     1
290
     0
176
     1
 93
       13
176
     1
 44
0.0
176
     1
173
     0
176
     1
1001
ACAD
1000
AcDbSavedByObjectVersion
1070
     0
  0
DICTIONARYVAR
  5
AC
102
{ACAD_REACTORS
330
A7
102
}
330
A7
100
DictionaryVariables
280
     0
  1
1:1
  0
DICTIONARYVAR
  5
A9
102
{ACAD_REACTORS
330
A7
102
}
330
A7
100
DictionaryVariables
280
     0
  1
STANDARD
  0
DICTIONARYVAR
  5
A8
102
{ACAD_REACTORS
330
A7
102
}
330
A7
100
DictionaryVariables
280
     0
  1
STANDARD
  0
DICTIONARYVAR
  5
AA
102
{ACAD_REACTORS
330
A7
102
}
330
A7
100
DictionaryVariables
280
     0
  1
Imperial24
  0
DICTIONARYVAR
  5
AB
102
{ACAD_REACTORS
330
A7
102
}
330
A7
100
DictionaryVariables
280
     0
  1
Imperial24
  0
DICTIONARY
  5
E4
330
6B
100
AcDbDictionary
280
     1
281
     1
  3
ACAD_XREC_ROUNDTRIP
360
E5
  0
DICTIONARY
  5
1A
330
19
100
AcDbDictionary
280
     1
281
     1
  3
BUMPTILE
360
1C
  3
DIFFUSETILE
360
1B
  3
OPACITYTILE
360
1F
  3
REFLECTIONTILE
360
1E
  3
REFRACTIONTILE
360
20
  3
SPECULARTILE
360
1D
  0
DICTIONARY
  5
12
330
11
100
AcDbDictionary
280
     1
281
     1
  3
BUMPTILE
360
14
  3
DIFFUSETILE
360
13
  3
OPACITYTILE
360
17
  3
REFLECTIONTILE
360
16
  3
REFRACTIONTILE
360
18
  3
SPECULARTILE
360
15
  0
DICTIONARY
  5
22
330
21
100
AcDbDictionary
280
     1
281
     1
  3
BUMPTILE
360
24
  3
DIFFUSETILE
360
23
  3
OPACITYTILE
360
27
  3
REFLECTIONTILE
360
26
  3
REFRACTIONTILE
360
28
  3
SPECULARTILE
360
25
  0
DICTIONARY
  5
E0
330
67
100
AcDbDictionary
280
     1
281
     1
  3
ACAD_XREC_ROUNDTRIP
360
E1
  0
DICTIONARY
  5
E2
330
69
100
AcDbDictionary
280
     1
281
     1
  3
ACAD_XREC_ROUNDTRIP
360
E3
  0
DICTIONARY
  5
AD
330
65
100
AcDbDictionary
280
     1
281
     1
  3
ACAD_ROUNDTRIP_2008_TABLESTYLE_CELLSTYLEMAP
360
AE
  0
DICTIONARY
  5
BA
330
2F
100
AcDbDictionary
280
     1
281
     1
  3
ACAD_XREC_ROUNDTRIP
360
BB
  0
DICTIONARY
  5
B8
330
2E
100
AcDbDictionary
280
     1
281
     1
  3
ACAD_XREC_ROUNDTRIP
360
B9
  0
DICTIONARY
  5
C6
330
35
100
AcDbDictionary
280
     1
281
     1
  3
ACAD_XREC_ROUNDTRIP
360
C7
  0
DICTIONARY
  5
CE
330
39
100
AcDbDictionary
280
     1
281
     1
  3
ACAD_XREC_ROUNDTRIP
360
CF
  0
DICTIONARY
  5
C0
330
32
100
AcDbDictionary
280
     1
281
     1
  3
ACAD_XREC_ROUNDTRIP
360
C1
  0
DICTIONARY
  5
C4
330
34
100
AcDbDictionary
280
     1
281
     1
  3
ACAD_XREC_ROUNDTRIP
360
C5
  0
DICTIONARY
  5
DE
330
41
100
AcDbDictionary
280
     1
281
     1
  3
ACAD_XREC_ROUNDTRIP
360
DF
  0
DICTIONARY
  5
CC
330
38
100
AcDbDictionary
280
     1
281
     1
  3
ACAD_XREC_ROUNDTRIP
360
CD
  0
DICTIONARY
  5
B0
330
2A
100
AcDbDictionary
280
     1
281
     1
  3
ACAD_XREC_ROUNDTRIP
360
B1
  0
DICTIONARY
  5
B2
330
2B
100
AcDbDictionary
280
     1
281
     1
  3
ACAD_XREC_ROUNDTRIP
360
B3
  0
DICTIONARY
  5
B4
330
2C
100
AcDbDictionary
280
     1
281
     1
  3
ACAD_XREC_ROUNDTRIP
360
B5
  0
DICTIONARY
  5
B6
330
2D
100
AcDbDictionary
280
     1
281
     1
  3
ACAD_XREC_ROUNDTRIP
360
B7
  0
DICTIONARY
  5
BE
330
31
100
AcDbDictionary
280
     1
281
     1
  3
ACAD_XREC_ROUNDTRIP
360
BF
  0
DICTIONARY
  5
DA
330
3F
100
AcDbDictionary
280
     1
281
     1
  3
ACAD_XREC_ROUNDTRIP
360
DB
  0
DICTIONARY
  5
CA
330
37
100
AcDbDictionary
280
     1
281
     1
  3
ACAD_XREC_ROUNDTRIP
360
CB
  0
DICTIONARY
  5
DC
330
40
100
AcDbDictionary
280
     1
281
     1
  3
ACAD_XREC_ROUNDTRIP
360
DD
  0
DICTIONARY
  5
C2
330
33
100
AcDbDictionary
280
     1
281
     1
  3
ACAD_XREC_ROUNDTRIP
360
C3
  0
DICTIONARY
  5
D8
330
3E
100
AcDbDictionary
280
     1
281
     1
  3
ACAD_XREC_ROUNDTRIP
360
D9
  0
DICTIONARY
  5
D6
330
3D
100
AcDbDictionary
280
     1
281
     1
  3
ACAD_XREC_ROUNDTRIP
360
D7
  0
DICTIONARY
  5
D0
330
3A
100
AcDbDictionary
280
     1
281
     1
  3
ACAD_XREC_ROUNDTRIP
360
D1
  0
DICTIONARY
  5
D2
330
3B
100
AcDbDictionary
280
     1
281
     1
  3
ACAD_XREC_ROUNDTRIP
360
D3
  0
DICTIONARY
  5
C8
330
36
100
AcDbDictionary
280
     1
281
     1
  3
ACAD_XREC_ROUNDTRIP
360
C9
  0
DICTIONARY
  5
BC
330
30
100
AcDbDictionary
280
     1
281
     1
  3
ACAD_XREC_ROUNDTRIP
360
BD
  0
DICTIONARY
  5
D4
330
3C
100
AcDbDictionary
280
     1
281
     1
  3
ACAD_XREC_ROUNDTRIP
360
D5
  0
XRECORD
  5
E5
102
{ACAD_REACTORS
330
E4
102
}
330
E4
100
AcDbXrecord
280
     1
102
DISPLAYNAME
  1
Imperial24
102
FLAGS
 90
        0
  0
XRECORD
  5
1C
102
{ACAD_REACTORS
330
1A
102
}
330
1A
100
AcDbXrecord
280
     1
270
     1
271
     1
  0
XRECORD
  5
1B
102
{ACAD_REACTORS
330
1A
102
}
330
1A
100
AcDbXrecord
280
     1
270
     1
271
     1
  0
XRECORD
  5
1F
102
{ACAD_REACTORS
330
1A
102
}
330
1A
100
AcDbXrecord
280
     1
270
     1
271
     1
  0
XRECORD
  5
1E
102
{ACAD_REACTORS
330
1A
102
}
330
1A
100
AcDbXrecord
280
     1
270
     1
271
     1
  0
XRECORD
  5
20
102
{ACAD_REACTORS
330
1A
102
}
330
1A
100
AcDbXrecord
280
     1
270
     1
271
     1
  0
XRECORD
  5
1D
102
{ACAD_REACTORS
330
1A
102
}
330
1A
100
AcDbXrecord
280
     1
270
     1
271
     1
  0
XRECORD
  5
14
102
{ACAD_REACTORS
330
12
102
}
330
12
100
AcDbXrecord
280
     1
270
     1
271
     1
  0
XRECORD
  5
13
102
{ACAD_REACTORS
330
12
102
}
330
12
100
AcDbXrecord
280
     1
270
     1
271
     1
  0
XRECORD
  5
17
102
{ACAD_REACTORS
330
12
102
}
330
12
100
AcDbXrecord
280
     1
270
     1
271
     1
  0
XRECORD
  5
16
102
{ACAD_REACTORS
330
12
102
}
330
12
100
AcDbXrecord
280
     1
270
     1
271
     1
  0
XRECORD
  5
18
102
{ACAD_REACTORS
330
12
102
}
330
12
100
AcDbXrecord
280
     1
270
     1
271
     1
  0
XRECORD
  5
15
102
{ACAD_REACTORS
330
12
102
}
330
12
100
AcDbXrecord
280
     1
270
     1
271
     1
  0
XRECORD
  5
24
102
{ACAD_REACTORS
330
22
102
}
330
22
100
AcDbXrecord
280
     1
270
     1
271
     1
  0
XRECORD
  5
23
102
{ACAD_REACTORS
330
22
102
}
330
22
100
AcDbXrecord
280
     1
270
     1
271
     1
  0
XRECORD
  5
27
102
{ACAD_REACTORS
330
22
102
}
330
22
100
AcDbXrecord
280
     1
270
     1
271
     1
  0
XRECORD
  5
26
102
{ACAD_REACTORS
330
22
102
}
330
22
100
AcDbXrecord
280
     1
270
     1
271
     1
  0
XRECORD
  5
28
102
{ACAD_REACTORS
330
22
102
}
330
22
100
AcDbXrecord
280
     1
270
     1
271
     1
  0
XRECORD
  5
25
102
{ACAD_REACTORS
330
22
102
}
330
22
100
AcDbXrecord
280
     1
270
     1
271
     1
  0
XRECORD
  5
E1
102
{ACAD_REACTORS
330
E0
102
}
330
E0
100
AcDbXrecord
280
     1
102
ACAD_ROUNDTRIP_2012_MLEADER_STYLE
298
     1
  0
XRECORD
  5
E3
102
{ACAD_REACTORS
330
E2
102
}
330
E2
100
AcDbXrecord
280
     1
102
DISPLAYNAME
  1
Imperial24
102
FLAGS
 90
        0
  0
CELLSTYLEMAP
  5
AE
102
{ACAD_REACTORS
330
AD
102
}
330
AD
100
AcDbCellStyleMap
 90
        3
300
CELLSTYLE
  1
TABLEFORMAT_BEGIN
 90
        5
170
     1
 91
        0
 92
    32768
 62
   257
 93
        1
300
CONTENTFORMAT
  1
CONTENTFORMAT_BEGIN
 90
        0
 91
        0
 92
      512
 93
        0
300

 40
0.0
140
1.0
 94
        5
 62
     0
340
55
144
0.25
309
CONTENTFORMAT_END
171
     0
 94
        0
309
TABLEFORMAT_END
  1
CELLSTYLE_BEGIN
 90
        1
 91
        1
300
_TITLE
309
CELLSTYLE_END
300
CELLSTYLE
  1
TABLEFORMAT_BEGIN
 90
        5
170
     1
 91
        0
 92
        0
 62
   257
 93
        1
300
CONTENTFORMAT
  1
CONTENTFORMAT_BEGIN
 90
        0
 91
        0
 92
      512
 93
        0
300

 40
0.0
140
1.0
 94
        5
 62
     0
340
55
144
0.18
309
CONTENTFORMAT_END
171
     0
 94
        0
309
TABLEFORMAT_END
  1
CELLSTYLE_BEGIN
 90
        2
 91
        1
300
_HEADER
309
CELLSTYLE_END
300
CELLSTYLE
  1
TABLEFORMAT_BEGIN
 90
        5
170
     1
 91
        0
 92
        0
 62
   257
 93
        1
300
CONTENTFORMAT
  1
CONTENTFORMAT_BEGIN
 90
        0
 91
        0
 92
      512
 93
        0
300

 40
0.0
140
1.0
 94
        2
 62
     0
340
55
144
0.18
309
CONTENTFORMAT_END
171
     0
 94
        0
309
TABLEFORMAT_END
  1
CELLSTYLE_BEGIN
 90
        3
 91
        2
300
_DATA
309
CELLSTYLE_END
  0
XRECORD
  5
BB
102
{ACAD_REACTORS
330
BA
102
}
330
BA
100
AcDbXrecord
280
     1
102
RTVSPost2010Prop28
280
     1
102
RTVSPost2010PropOp28
 70
     1
102
RTVSPost2010Prop29
280
     1
102
RTVSPost2010PropOp29
 70
     1
102
RTVSPost2010Prop30
280
     0
102
RTVSPost2010PropOp30
 70
     1
102
RTVSPost2010Prop31
280
     0
102
RTVSPost2010PropOp31
 70
     1
102
RTVSPost2010Prop32
280
     0
102
RTVSPost2010PropOp32
 70
     1
102
RTVSPost2010Prop33
280
     0
102
RTVSPost2010PropOp33
 70
     1
102
RTVSPost2010Prop34
280
     0
102
RTVSPost2010PropOp34
 70
     1
102
RTVSPost2010Prop35
280
     0
102
RTVSPost2010PropOp35
 70
     1
102
RTVSPost2010Prop36
280
     0
102
RTVSPost2010PropOp36
 70
     1
102
RTVSPost2010Prop37
 90
       50
102
RTVSPost2010PropOp37
 70
     1
102
RTVSPost2010Prop38
140
0.0
102
RTVSPost2010PropOp38
 70
     1
102
RTVSPost2010Prop39
140
1.0
102
RTVSPost2010PropOp39
 70
     1
102
RTVSPost2010Prop40
 90
        0
102
RTVSPost2010PropOp40
 70
     1
102
RTVSPost2010Prop41ColorIndex
 90
       18
102
RTVSPost2010Prop41ColorRGB
 90
        0
102
RTVSPost2010PropOp41
 70
     1
102
RTVSPost2010Prop42
 90
       50
102
RTVSPost2010PropOp42
 70
     1
102
RTVSPost2010Prop43
 90
        3
102
RTVSPost2010PropOp43
 70
     1
102
RTVSPost2010Prop44ColorIndex
 90
        5
102
RTVSPost2010Prop44ColorRGB
 90
      255
102
RTVSPost2010PropOp44
 70
     1
102
RTVSPost2010Prop45
280
     0
102
RTVSPost2010PropOp45
 70
     1
102
RTVSPost2010Prop46
 90
       50
102
RTVSPost2010PropOp46
 70
     1
102
RTVSPost2010Prop47
 90
       50
102
RTVSPost2010PropOp47
 70
     1
102
RTVSPost2010Prop48
 90
       50
102
RTVSPost2010PropOp48
 70
     1
102
RTVSPost2010Prop49
280
     0
102
RTVSPost2010PropOp49
 70
     1
102
RTVSPost2010Prop50
 90
       50
102
RTVSPost2010PropOp50
 70
     1
102
RTVSPost2010Prop51ColorIndex
 90
      256
102
RTVSPost2010Prop51ColorRGB
 90
-16777216
102
RTVSPost2010PropOp51
 70
     0
102
RTVSPost2010Prop52
140
1.0
102
RTVSPost2010PropOp52
 70
     0
102
RTVSPost2010Prop53
 90
        2
102
RTVSPost2010PropOp53
 70
     1
102
RTVSPost2010Prop54
  1
strokes_ogs.tif
102
RTVSPost2010PropOp54
 70
     1
102
RTVSPost2010Prop55
280
     0
102
RTVSPost2010PropOp55
 70
     1
102
RTVSPost2010Prop56
140
1.0
102
RTVSPost2010PropOp56
 70
     1
102
RTVSPost2010Prop57
140
1.0
102
RTVSPost2010PropOp57
 70
     1
  0
XRECORD
  5
B9
102
{ACAD_REACTORS
330
B8
102
}
330
B8
100
AcDbXrecord
280
     1
102
RTVSPost2010Prop28
280
     0
102
RTVSPost2010PropOp28
 70
     1
102
RTVSPost2010Prop29
280
     1
102
RTVSPost2010PropOp29
 70
     1
102
RTVSPost2010Prop30
280
     1
102
RTVSPost2010PropOp30
 70
     1
102
RTVSPost2010Prop31
280
     0
102
RTVSPost2010PropOp31
 70
     1
102
RTVSPost2010Prop32
280
     0
102
RTVSPost2010PropOp32
 70
     1
102
RTVSPost2010Prop33
280
     0
102
RTVSPost2010PropOp33
 70
     1
102
RTVSPost2010Prop34
280
     0
102
RTVSPost2010PropOp34
 70
     1
102
RTVSPost2010Prop35
280
     0
102
RTVSPost2010PropOp35
 70
     1
102
RTVSPost2010Prop36
280
     0
102
RTVSPost2010PropOp36
 70
     1
102
RTVSPost2010Prop37
 90
       50
102
RTVSPost2010PropOp37
 70
     1
102
RTVSPost2010Prop38
140
0.0
102
RTVSPost2010PropOp38
 70
     1
102
RTVSPost2010Prop39
140
1.0
102
RTVSPost2010PropOp39
 70
     1
102
RTVSPost2010Prop40
 90
        0
102
RTVSPost2010PropOp40
 70
     1
102
RTVSPost2010Prop41ColorIndex
 90
       18
102
RTVSPost2010Prop41ColorRGB
 90
        0
102
RTVSPost2010PropOp41
 70
     1
102
RTVSPost2010Prop42
 90
       50
102
RTVSPost2010PropOp42
 70
     1
102
RTVSPost2010Prop43
 90
        3
102
RTVSPost2010PropOp43
 70
     1
102
RTVSPost2010Prop44ColorIndex
 90
        5
102
RTVSPost2010Prop44ColorRGB
 90
      255
102
RTVSPost2010PropOp44
 70
     1
102
RTVSPost2010Prop45
280
     0
102
RTVSPost2010PropOp45
 70
     1
102
RTVSPost2010Prop46
 90
       50
102
RTVSPost2010PropOp46
 70
     1
102
RTVSPost2010Prop47
 90
       50
102
RTVSPost2010PropOp47
 70
     1
102
RTVSPost2010Prop48
 90
       50
102
RTVSPost2010PropOp48
 70
     1
102
RTVSPost2010Prop49
280
     0
102
RTVSPost2010PropOp49
 70
     1
102
RTVSPost2010Prop50
 90
       50
102
RTVSPost2010PropOp50
 70
     1
102
RTVSPost2010Prop51ColorIndex
 90
      256
102
RTVSPost2010Prop51ColorRGB
 90
-16777216
102
RTVSPost2010PropOp51
 70
     0
102
RTVSPost2010Prop52
140
1.0
102
RTVSPost2010PropOp52
 70
     0
102
RTVSPost2010Prop53
 90
        2
102
RTVSPost2010PropOp53
 70
     1
102
RTVSPost2010Prop54
  1
strokes_ogs.tif
102
RTVSPost2010PropOp54
 70
     1
102
RTVSPost2010Prop55
280
     0
102
RTVSPost2010PropOp55
 70
     1
102
RTVSPost2010Prop56
140
1.0
102
RTVSPost2010PropOp56
 70
     1
102
RTVSPost2010Prop57
140
1.0
102
RTVSPost2010PropOp57
 70
     1
  0
XRECORD
  5
C7
102
{ACAD_REACTORS
330
C6
102
}
330
C6
100
AcDbXrecord
280
     1
102
RTVSPost2010Prop28
280
     0
102
RTVSPost2010PropOp28
 70
     1
102
RTVSPost2010Prop29
280
     1
102
RTVSPost2010PropOp29
 70
     1
102
RTVSPost2010Prop30
280
     1
102
RTVSPost2010PropOp30
 70
     1
102
RTVSPost2010Prop31
280
     0
102
RTVSPost2010PropOp31
 70
     1
102
RTVSPost2010Prop32
280
     0
102
RTVSPost2010PropOp32
 70
     1
102
RTVSPost2010Prop33
280
     0
102
RTVSPost2010PropOp33
 70
     1
102
RTVSPost2010Prop34
280
     0
102
RTVSPost2010PropOp34
 70
     1
102
RTVSPost2010Prop35
280
     0
102
RTVSPost2010PropOp35
 70
     1
102
RTVSPost2010Prop36
280
     0
102
RTVSPost2010PropOp36
 70
     1
102
RTVSPost2010Prop37
 90
       50
102
RTVSPost2010PropOp37
 70
     1
102
RTVSPost2010Prop38
140
0.0
102
RTVSPost2010PropOp38
 70
     1
102
RTVSPost2010Prop39
140
1.0
102
RTVSPost2010PropOp39
 70
     1
102
RTVSPost2010Prop40
 90
        0
102
RTVSPost2010PropOp40
 70
     1
102
RTVSPost2010Prop41ColorIndex
 90
       18
102
RTVSPost2010Prop41ColorRGB
 90
        0
102
RTVSPost2010PropOp41
 70
     1
102
RTVSPost2010Prop42
 90
       50
102
RTVSPost2010PropOp42
 70
     1
102
RTVSPost2010Prop43
 90
        3
102
RTVSPost2010PropOp43
 70
     1
102
RTVSPost2010Prop44ColorIndex
 90
        5
102
RTVSPost2010Prop44ColorRGB
 90
      255
102
RTVSPost2010PropOp44
 70
     1
102
RTVSPost2010Prop45
280
     0
102
RTVSPost2010PropOp45
 70
     1
102
RTVSPost2010Prop46
 90
       50
102
RTVSPost2010PropOp46
 70
     1
102
RTVSPost2010Prop47
 90
       50
102
RTVSPost2010PropOp47
 70
     1
102
RTVSPost2010Prop48
 90
       50
102
RTVSPost2010PropOp48
 70
     1
102
RTVSPost2010Prop49
280
     0
102
RTVSPost2010PropOp49
 70
     1
102
RTVSPost2010Prop50
 90
       50
102
RTVSPost2010PropOp50
 70
     1
102
RTVSPost2010Prop51ColorIndex
 90
      256
102
RTVSPost2010Prop51ColorRGB
 90
-16777216
102
RTVSPost2010PropOp51
 70
     0
102
RTVSPost2010Prop52
140
1.0
102
RTVSPost2010PropOp52
 70
     0
102
RTVSPost2010Prop53
 90
        2
102
RTVSPost2010PropOp53
 70
     1
102
RTVSPost2010Prop54
  1
strokes_ogs.tif
102
RTVSPost2010PropOp54
 70
     1
102
RTVSPost2010Prop55
280
     0
102
RTVSPost2010PropOp55
 70
     1
102
RTVSPost2010Prop56
140
1.0
102
RTVSPost2010PropOp56
 70
     1
102
RTVSPost2010Prop57
140
1.0
102
RTVSPost2010PropOp57
 70
     1
  0
XRECORD
  5
CF
102
{ACAD_REACTORS
330
CE
102
}
330
CE
100
AcDbXrecord
280
     1
102
RTVSPost2010Prop28
280
     0
102
RTVSPost2010PropOp28
 70
     1
102
RTVSPost2010Prop29
280
     1
102
RTVSPost2010PropOp29
 70
     1
102
RTVSPost2010Prop30
280
     1
102
RTVSPost2010PropOp30
 70
     1
102
RTVSPost2010Prop31
280
     0
102
RTVSPost2010PropOp31
 70
     1
102
RTVSPost2010Prop32
280
     0
102
RTVSPost2010PropOp32
 70
     1
102
RTVSPost2010Prop33
280
     0
102
RTVSPost2010PropOp33
 70
     1
102
RTVSPost2010Prop34
280
     0
102
RTVSPost2010PropOp34
 70
     1
102
RTVSPost2010Prop35
280
     0
102
RTVSPost2010PropOp35
 70
     1
102
RTVSPost2010Prop36
280
     0
102
RTVSPost2010PropOp36
 70
     1
102
RTVSPost2010Prop37
 90
       50
102
RTVSPost2010PropOp37
 70
     1
102
RTVSPost2010Prop38
140
0.0
102
RTVSPost2010PropOp38
 70
     1
102
RTVSPost2010Prop39
140
1.0
102
RTVSPost2010PropOp39
 70
     1
102
RTVSPost2010Prop40
 90
        0
102
RTVSPost2010PropOp40
 70
     1
102
RTVSPost2010Prop41ColorIndex
 90
       18
102
RTVSPost2010Prop41ColorRGB
 90
        0
102
RTVSPost2010PropOp41
 70
     1
102
RTVSPost2010Prop42
 90
       50
102
RTVSPost2010PropOp42
 70
     1
102
RTVSPost2010Prop43
 90
        3
102
RTVSPost2010PropOp43
 70
     1
102
RTVSPost2010Prop44ColorIndex
 90
        5
102
RTVSPost2010Prop44ColorRGB
 90
      255
102
RTVSPost2010PropOp44
 70
     1
102
RTVSPost2010Prop45
280
     0
102
RTVSPost2010PropOp45
 70
     1
102
RTVSPost2010Prop46
 90
       50
102
RTVSPost2010PropOp46
 70
     1
102
RTVSPost2010Prop47
 90
       50
102
RTVSPost2010PropOp47
 70
     1
102
RTVSPost2010Prop48
 90
       50
102
RTVSPost2010PropOp48
 70
     1
102
RTVSPost2010Prop49
280
     0
102
RTVSPost2010PropOp49
 70
     1
102
RTVSPost2010Prop50
 90
       50
102
RTVSPost2010PropOp50
 70
     1
102
RTVSPost2010Prop51ColorIndex
 90
      256
102
RTVSPost2010Prop51ColorRGB
 90
-16777216
102
RTVSPost2010PropOp51
 70
     0
102
RTVSPost2010Prop52
140
1.0
102
RTVSPost2010PropOp52
 70
     0
102
RTVSPost2010Prop53
 90
        2
102
RTVSPost2010PropOp53
 70
     1
102
RTVSPost2010Prop54
  1
strokes_ogs.tif
102
RTVSPost2010PropOp54
 70
     1
102
RTVSPost2010Prop55
280
     0
102
RTVSPost2010PropOp55
 70
     1
102
RTVSPost2010Prop56
140
1.0
102
RTVSPost2010PropOp56
 70
     1
102
RTVSPost2010Prop57
140
1.0
102
RTVSPost2010PropOp57
 70
     1
  0
XRECORD
  5
C1
102
{ACAD_REACTORS
330
C0
102
}
330
C0
100
AcDbXrecord
280
     1
102
RTVSPost2010Prop28
280
     0
102
RTVSPost2010PropOp28
 70
     1
102
RTVSPost2010Prop29
280
     1
102
RTVSPost2010PropOp29
 70
     1
102
RTVSPost2010Prop30
280
     1
102
RTVSPost2010PropOp30
 70
     1
102
RTVSPost2010Prop31
280
     0
102
RTVSPost2010PropOp31
 70
     1
102
RTVSPost2010Prop32
280
     0
102
RTVSPost2010PropOp32
 70
     1
102
RTVSPost2010Prop33
280
     0
102
RTVSPost2010PropOp33
 70
     1
102
RTVSPost2010Prop34
280
     0
102
RTVSPost2010PropOp34
 70
     1
102
RTVSPost2010Prop35
280
     0
102
RTVSPost2010PropOp35
 70
     1
102
RTVSPost2010Prop36
280
     0
102
RTVSPost2010PropOp36
 70
     1
102
RTVSPost2010Prop37
 90
       50
102
RTVSPost2010PropOp37
 70
     1
102
RTVSPost2010Prop38
140
0.0
102
RTVSPost2010PropOp38
 70
     1
102
RTVSPost2010Prop39
140
1.0
102
RTVSPost2010PropOp39
 70
     1
102
RTVSPost2010Prop40
 90
        0
102
RTVSPost2010PropOp40
 70
     1
102
RTVSPost2010Prop41ColorIndex
 90
       18
102
RTVSPost2010Prop41ColorRGB
 90
        0
102
RTVSPost2010PropOp41
 70
     1
102
RTVSPost2010Prop42
 90
       50
102
RTVSPost2010PropOp42
 70
     1
102
RTVSPost2010Prop43
 90
        3
102
RTVSPost2010PropOp43
 70
     1
102
RTVSPost2010Prop44ColorIndex
 90
        5
102
RTVSPost2010Prop44ColorRGB
 90
      255
102
RTVSPost2010PropOp44
 70
     1
102
RTVSPost2010Prop45
280
     0
102
RTVSPost2010PropOp45
 70
     1
102
RTVSPost2010Prop46
 90
       50
102
RTVSPost2010PropOp46
 70
     1
102
RTVSPost2010Prop47
 90
       50
102
RTVSPost2010PropOp47
 70
     1
102
RTVSPost2010Prop48
 90
       50
102
RTVSPost2010PropOp48
 70
     1
102
RTVSPost2010Prop49
280
     0
102
RTVSPost2010PropOp49
 70
     1
102
RTVSPost2010Prop50
 90
       50
102
RTVSPost2010PropOp50
 70
     1
102
RTVSPost2010Prop51ColorIndex
 90
      256
102
RTVSPost2010Prop51ColorRGB
 90
-16777216
102
RTVSPost2010PropOp51
 70
     0
102
RTVSPost2010Prop52
140
1.0
102
RTVSPost2010PropOp52
 70
     0
102
RTVSPost2010Prop53
 90
        2
102
RTVSPost2010PropOp53
 70
     1
102
RTVSPost2010Prop54
  1
strokes_ogs.tif
102
RTVSPost2010PropOp54
 70
     1
102
RTVSPost2010Prop55
280
     0
102
RTVSPost2010PropOp55
 70
     1
102
RTVSPost2010Prop56
140
1.0
102
RTVSPost2010PropOp56
 70
     1
102
RTVSPost2010Prop57
140
1.0
102
RTVSPost2010PropOp57
 70
     1
  0
XRECORD
  5
C5
102
{ACAD_REACTORS
330
C4
102
}
330
C4
100
AcDbXrecord
280
     1
102
RTVSPost2010Prop28
280
     0
102
RTVSPost2010PropOp28
 70
     1
102
RTVSPost2010Prop29
280
     1
102
RTVSPost2010PropOp29
 70
     1
102
RTVSPost2010Prop30
280
     1
102
RTVSPost2010PropOp30
 70
     1
102
RTVSPost2010Prop31
280
     0
102
RTVSPost2010PropOp31
 70
     1
102
RTVSPost2010Prop32
280
     0
102
RTVSPost2010PropOp32
 70
     1
102
RTVSPost2010Prop33
280
     0
102
RTVSPost2010PropOp33
 70
     1
102
RTVSPost2010Prop34
280
     0
102
RTVSPost2010PropOp34
 70
     1
102
RTVSPost2010Prop35
280
     0
102
RTVSPost2010PropOp35
 70
     1
102
RTVSPost2010Prop36
280
     0
102
RTVSPost2010PropOp36
 70
     1
102
RTVSPost2010Prop37
 90
       50
102
RTVSPost2010PropOp37
 70
     1
102
RTVSPost2010Prop38
140
0.0
102
RTVSPost2010PropOp38
 70
     1
102
RTVSPost2010Prop39
140
1.0
102
RTVSPost2010PropOp39
 70
     1
102
RTVSPost2010Prop40
 90
        0
102
RTVSPost2010PropOp40
 70
     1
102
RTVSPost2010Prop41ColorIndex
 90
       18
102
RTVSPost2010Prop41ColorRGB
 90
        0
102
RTVSPost2010PropOp41
 70
     1
102
RTVSPost2010Prop42
 90
       50
102
RTVSPost2010PropOp42
 70
     1
102
RTVSPost2010Prop43
 90
        3
102
RTVSPost2010PropOp43
 70
     1
102
RTVSPost2010Prop44ColorIndex
 90
        5
102
RTVSPost2010Prop44ColorRGB
 90
      255
102
RTVSPost2010PropOp44
 70
     1
102
RTVSPost2010Prop45
280
     0
102
RTVSPost2010PropOp45
 70
     1
102
RTVSPost2010Prop46
 90
       50
102
RTVSPost2010PropOp46
 70
     1
102
RTVSPost2010Prop47
 90
       50
102
RTVSPost2010PropOp47
 70
     1
102
RTVSPost2010Prop48
 90
       50
102
RTVSPost2010PropOp48
 70
     1
102
RTVSPost2010Prop49
280
     0
102
RTVSPost2010PropOp49
 70
     1
102
RTVSPost2010Prop50
 90
       50
102
RTVSPost2010PropOp50
 70
     1
102
RTVSPost2010Prop51ColorIndex
 90
      256
102
RTVSPost2010Prop51ColorRGB
 90
-16777216
102
RTVSPost2010PropOp51
 70
     0
102
RTVSPost2010Prop52
140
1.0
102
RTVSPost2010PropOp52
 70
     0
102
RTVSPost2010Prop53
 90
        2
102
RTVSPost2010PropOp53
 70
     1
102
RTVSPost2010Prop54
  1
strokes_ogs.tif
102
RTVSPost2010PropOp54
 70
     1
102
RTVSPost2010Prop55
280
     0
102
RTVSPost2010PropOp55
 70
     1
102
RTVSPost2010Prop56
140
1.0
102
RTVSPost2010PropOp56
 70
     1
102
RTVSPost2010Prop57
140
1.0
102
RTVSPost2010PropOp57
 70
     1
  0
XRECORD
  5
DF
102
{ACAD_REACTORS
330
DE
102
}
330
DE
100
AcDbXrecord
280
     1
102
RTVSPost2010Prop28
280
     0
102
RTVSPost2010PropOp28
 70
     0
102
RTVSPost2010Prop29
280
     1
102
RTVSPost2010PropOp29
 70
     0
102
RTVSPost2010Prop30
280
     1
102
RTVSPost2010PropOp30
 70
     0
102
RTVSPost2010Prop31
280
     0
102
RTVSPost2010PropOp31
 70
     0
102
RTVSPost2010Prop32
280
     0
102
RTVSPost2010PropOp32
 70
     0
102
RTVSPost2010Prop33
280
     0
102
RTVSPost2010PropOp33
 70
     0
102
RTVSPost2010Prop34
280
     0
102
RTVSPost2010PropOp34
 70
     0
102
RTVSPost2010Prop35
280
     0
102
RTVSPost2010PropOp35
 70
     0
102
RTVSPost2010Prop36
280
     0
102
RTVSPost2010PropOp36
 70
     0
102
RTVSPost2010Prop37
 90
       50
102
RTVSPost2010PropOp37
 70
     0
102
RTVSPost2010Prop38
140
0.0
102
RTVSPost2010PropOp38
 70
     0
102
RTVSPost2010Prop39
140
1.0
102
RTVSPost2010PropOp39
 70
     0
102
RTVSPost2010Prop40
 90
        0
102
RTVSPost2010PropOp40
 70
     0
102
RTVSPost2010Prop41ColorIndex
 90
       18
102
RTVSPost2010Prop41ColorRGB
 90
        0
102
RTVSPost2010PropOp41
 70
     0
102
RTVSPost2010Prop42
 90
       50
102
RTVSPost2010PropOp42
 70
     0
102
RTVSPost2010Prop43
 90
        3
102
RTVSPost2010PropOp43
 70
     0
102
RTVSPost2010Prop44ColorIndex
 90
        5
102
RTVSPost2010Prop44ColorRGB
 90
      255
102
RTVSPost2010PropOp44
 70
     0
102
RTVSPost2010Prop45
280
     0
102
RTVSPost2010PropOp45
 70
     0
102
RTVSPost2010Prop46
 90
       50
102
RTVSPost2010PropOp46
 70
     0
102
RTVSPost2010Prop47
 90
       50
102
RTVSPost2010PropOp47
 70
     0
102
RTVSPost2010Prop48
 90
       50
102
RTVSPost2010PropOp48
 70
     0
102
RTVSPost2010Prop49
280
     0
102
RTVSPost2010PropOp49
 70
     0
102
RTVSPost2010Prop50
 90
       50
102
RTVSPost2010PropOp50
 70
     0
102
RTVSPost2010Prop51ColorIndex
 90
      256
102
RTVSPost2010Prop51ColorRGB
 90
-16777216
102
RTVSPost2010PropOp51
 70
     0
102
RTVSPost2010Prop52
140
1.0
102
RTVSPost2010PropOp52
 70
     0
102
RTVSPost2010Prop53
 90
        2
102
RTVSPost2010PropOp53
 70
     0
102
RTVSPost2010Prop54
  1
strokes_ogs.tif
102
RTVSPost2010PropOp54
 70
     0
102
RTVSPost2010Prop55
280
     0
102
RTVSPost2010PropOp55
 70
     0
102
RTVSPost2010Prop56
140
1.0
102
RTVSPost2010PropOp56
 70
     0
102
RTVSPost2010Prop57
140
1.0
102
RTVSPost2010PropOp57
 70
     0
  0
XRECORD
  5
CD
102
{ACAD_REACTORS
330
CC
102
}
330
CC
100
AcDbXrecord
280
     1
102
RTVSPost2010Prop28
280
     0
102
RTVSPost2010PropOp28
 70
     1
102
RTVSPost2010Prop29
280
     1
102
RTVSPost2010PropOp29
 70
     1
102
RTVSPost2010Prop30
280
     1
102
RTVSPost2010PropOp30
 70
     1
102
RTVSPost2010Prop31
280
     0
102
RTVSPost2010PropOp31
 70
     1
102
RTVSPost2010Prop32
280
     0
102
RTVSPost2010PropOp32
 70
     1
102
RTVSPost2010Prop33
280
     0
102
RTVSPost2010PropOp33
 70
     1
102
RTVSPost2010Prop34
280
     0
102
RTVSPost2010PropOp34
 70
     1
102
RTVSPost2010Prop35
280
     0
102
RTVSPost2010PropOp35
 70
     1
102
RTVSPost2010Prop36
280
     0
102
RTVSPost2010PropOp36
 70
     1
102
RTVSPost2010Prop37
 90
       50
102
RTVSPost2010PropOp37
 70
     1
102
RTVSPost2010Prop38
140
0.0
102
RTVSPost2010PropOp38
 70
     1
102
RTVSPost2010Prop39
140
1.0
102
RTVSPost2010PropOp39
 70
     1
102
RTVSPost2010Prop40
 90
        0
102
RTVSPost2010PropOp40
 70
     1
102
RTVSPost2010Prop41ColorIndex
 90
       18
102
RTVSPost2010Prop41ColorRGB
 90
        0
102
RTVSPost2010PropOp41
 70
     1
102
RTVSPost2010Prop42
 90
       50
102
RTVSPost2010PropOp42
 70
     1
102
RTVSPost2010Prop43
 90
        3
102
RTVSPost2010PropOp43
 70
     1
102
RTVSPost2010Prop44ColorIndex
 90
        5
102
RTVSPost2010Prop44ColorRGB
 90
      255
102
RTVSPost2010PropOp44
 70
     1
102
RTVSPost2010Prop45
280
     0
102
RTVSPost2010PropOp45
 70
     1
102
RTVSPost2010Prop46
 90
       50
102
RTVSPost2010PropOp46
 70
     1
102
RTVSPost2010Prop47
 90
       50
102
RTVSPost2010PropOp47
 70
     1
102
RTVSPost2010Prop48
 90
       50
102
RTVSPost2010PropOp48
 70
     1
102
RTVSPost2010Prop49
280
     0
102
RTVSPost2010PropOp49
 70
     1
102
RTVSPost2010Prop50
 90
       50
102
RTVSPost2010PropOp50
 70
     1
102
RTVSPost2010Prop51ColorIndex
 90
      256
102
RTVSPost2010Prop51ColorRGB
 90
-16777216
102
RTVSPost2010PropOp51
 70
     0
102
RTVSPost2010Prop52
140
1.0
102
RTVSPost2010PropOp52
 70
     0
102
RTVSPost2010Prop53
 90
        2
102
RTVSPost2010PropOp53
 70
     1
102
RTVSPost2010Prop54
  1
strokes_ogs.tif
102
RTVSPost2010PropOp54
 70
     1
102
RTVSPost2010Prop55
280
     0
102
RTVSPost2010PropOp55
 70
     1
102
RTVSPost2010Prop56
140
1.0
102
RTVSPost2010PropOp56
 70
     1
102
RTVSPost2010Prop57
140
1.0
102
RTVSPost2010PropOp57
 70
     1
  0
XRECORD
  5
B1
102
{ACAD_REACTORS
330
B0
102
}
330
B0
100
AcDbXrecord
280
     1
102
RTVSPost2010Prop28
280
     0
102
RTVSPost2010PropOp28
 70
     1
102
RTVSPost2010Prop29
280
     1
102
RTVSPost2010PropOp29
 70
     1
102
RTVSPost2010Prop30
280
     1
102
RTVSPost2010PropOp30
 70
     1
102
RTVSPost2010Prop31
280
     0
102
RTVSPost2010PropOp31
 70
     1
102
RTVSPost2010Prop32
280
     0
102
RTVSPost2010PropOp32
 70
     1
102
RTVSPost2010Prop33
280
     0
102
RTVSPost2010PropOp33
 70
     1
102
RTVSPost2010Prop34
280
     0
102
RTVSPost2010PropOp34
 70
     1
102
RTVSPost2010Prop35
280
     0
102
RTVSPost2010PropOp35
 70
     1
102
RTVSPost2010Prop36
280
     0
102
RTVSPost2010PropOp36
 70
     1
102
RTVSPost2010Prop37
 90
       50
102
RTVSPost2010PropOp37
 70
     1
102
RTVSPost2010Prop38
140
0.0
102
RTVSPost2010PropOp38
 70
     1
102
RTVSPost2010Prop39
140
1.0
102
RTVSPost2010PropOp39
 70
     1
102
RTVSPost2010Prop40
 90
        0
102
RTVSPost2010PropOp40
 70
     1
102
RTVSPost2010Prop41ColorIndex
 90
       18
102
RTVSPost2010Prop41ColorRGB
 90
        0
102
RTVSPost2010PropOp41
 70
     1
102
RTVSPost2010Prop42
 90
       50
102
RTVSPost2010PropOp42
 70
     1
102
RTVSPost2010Prop43
 90
        3
102
RTVSPost2010PropOp43
 70
     1
102
RTVSPost2010Prop44ColorIndex
 90
        5
102
RTVSPost2010Prop44ColorRGB
 90
      255
102
RTVSPost2010PropOp44
 70
     1
102
RTVSPost2010Prop45
280
     0
102
RTVSPost2010PropOp45
 70
     1
102
RTVSPost2010Prop46
 90
       50
102
RTVSPost2010PropOp46
 70
     1
102
RTVSPost2010Prop47
 90
       50
102
RTVSPost2010PropOp47
 70
     1
102
RTVSPost2010Prop48
 90
       50
102
RTVSPost2010PropOp48
 70
     1
102
RTVSPost2010Prop49
280
     0
102
RTVSPost2010PropOp49
 70
     1
102
RTVSPost2010Prop50
 90
       50
102
RTVSPost2010PropOp50
 70
     1
102
RTVSPost2010Prop51ColorIndex
 90
      256
102
RTVSPost2010Prop51ColorRGB
 90
-16777216
102
RTVSPost2010PropOp51
 70
     0
102
RTVSPost2010Prop52
140
1.0
102
RTVSPost2010PropOp52
 70
     0
102
RTVSPost2010Prop53
 90
        2
102
RTVSPost2010PropOp53
 70
     1
102
RTVSPost2010Prop54
  1
strokes_ogs.tif
102
RTVSPost2010PropOp54
 70
     1
102
RTVSPost2010Prop55
280
     0
102
RTVSPost2010PropOp55
 70
     1
102
RTVSPost2010Prop56
140
1.0
102
RTVSPost2010PropOp56
 70
     1
102
RTVSPost2010Prop57
140
1.0
102
RTVSPost2010PropOp57
 70
     1
  0
XRECORD
  5
B3
102
{ACAD_REACTORS
330
B2
102
}
330
B2
100
AcDbXrecord
280
     1
102
RTVSPost2010Prop28
280
     0
102
RTVSPost2010PropOp28
 70
     1
102
RTVSPost2010Prop29
280
     1
102
RTVSPost2010PropOp29
 70
     1
102
RTVSPost2010Prop30
280
     1
102
RTVSPost2010PropOp30
 70
     1
102
RTVSPost2010Prop31
280
     0
102
RTVSPost2010PropOp31
 70
     1
102
RTVSPost2010Prop32
280
     0
102
RTVSPost2010PropOp32
 70
     1
102
RTVSPost2010Prop33
280
     0
102
RTVSPost2010PropOp33
 70
     1
102
RTVSPost2010Prop34
280
     0
102
RTVSPost2010PropOp34
 70
     1
102
RTVSPost2010Prop35
280
     0
102
RTVSPost2010PropOp35
 70
     1
102
RTVSPost2010Prop36
280
     0
102
RTVSPost2010PropOp36
 70
     1
102
RTVSPost2010Prop37
 90
       50
102
RTVSPost2010PropOp37
 70
     1
102
RTVSPost2010Prop38
140
0.0
102
RTVSPost2010PropOp38
 70
     1
102
RTVSPost2010Prop39
140
1.0
102
RTVSPost2010PropOp39
 70
     1
102
RTVSPost2010Prop40
 90
        0
102
RTVSPost2010PropOp40
 70
     1
102
RTVSPost2010Prop41ColorIndex
 90
       18
102
RTVSPost2010Prop41ColorRGB
 90
        0
102
RTVSPost2010PropOp41
 70
     1
102
RTVSPost2010Prop42
 90
       50
102
RTVSPost2010PropOp42
 70
     1
102
RTVSPost2010Prop43
 90
        3
102
RTVSPost2010PropOp43
 70
     1
102
RTVSPost2010Prop44ColorIndex
 90
        5
102
RTVSPost2010Prop44ColorRGB
 90
      255
102
RTVSPost2010PropOp44
 70
     1
102
RTVSPost2010Prop45
280
     0
102
RTVSPost2010PropOp45
 70
     1
102
RTVSPost2010Prop46
 90
       50
102
RTVSPost2010PropOp46
 70
     1
102
RTVSPost2010Prop47
 90
       50
102
RTVSPost2010PropOp47
 70
     1
102
RTVSPost2010Prop48
 90
       50
102
RTVSPost2010PropOp48
 70
     1
102
RTVSPost2010Prop49
280
     0
102
RTVSPost2010PropOp49
 70
     1
102
RTVSPost2010Prop50
 90
       50
102
RTVSPost2010PropOp50
 70
     1
102
RTVSPost2010Prop51ColorIndex
 90
      256
102
RTVSPost2010Prop51ColorRGB
 90
-16777216
102
RTVSPost2010PropOp51
 70
     0
102
RTVSPost2010Prop52
140
1.0
102
RTVSPost2010PropOp52
 70
     0
102
RTVSPost2010Prop53
 90
        2
102
RTVSPost2010PropOp53
 70
     1
102
RTVSPost2010Prop54
  1
strokes_ogs.tif
102
RTVSPost2010PropOp54
 70
     1
102
RTVSPost2010Prop55
280
     0
102
RTVSPost2010PropOp55
 70
     1
102
RTVSPost2010Prop56
140
1.0
102
RTVSPost2010PropOp56
 70
     1
102
RTVSPost2010Prop57
140
1.0
102
RTVSPost2010PropOp57
 70
     1
  0
XRECORD
  5
B5
102
{ACAD_REACTORS
330
B4
102
}
330
B4
100
AcDbXrecord
280
     1
102
RTVSPost2010Prop28
280
     0
102
RTVSPost2010PropOp28
 70
     1
102
RTVSPost2010Prop29
280
     1
102
RTVSPost2010PropOp29
 70
     1
102
RTVSPost2010Prop30
280
     1
102
RTVSPost2010PropOp30
 70
     1
102
RTVSPost2010Prop31
280
     0
102
RTVSPost2010PropOp31
 70
     1
102
RTVSPost2010Prop32
280
     0
102
RTVSPost2010PropOp32
 70
     1
102
RTVSPost2010Prop33
280
     0
102
RTVSPost2010PropOp33
 70
     1
102
RTVSPost2010Prop34
280
     0
102
RTVSPost2010PropOp34
 70
     1
102
RTVSPost2010Prop35
280
     0
102
RTVSPost2010PropOp35
 70
     1
102
RTVSPost2010Prop36
280
     0
102
RTVSPost2010PropOp36
 70
     1
102
RTVSPost2010Prop37
 90
       50
102
RTVSPost2010PropOp37
 70
     1
102
RTVSPost2010Prop38
140
0.0
102
RTVSPost2010PropOp38
 70
     1
102
RTVSPost2010Prop39
140
1.0
102
RTVSPost2010PropOp39
 70
     1
102
RTVSPost2010Prop40
 90
        0
102
RTVSPost2010PropOp40
 70
     1
102
RTVSPost2010Prop41ColorIndex
 90
       18
102
RTVSPost2010Prop41ColorRGB
 90
        0
102
RTVSPost2010PropOp41
 70
     1
102
RTVSPost2010Prop42
 90
       50
102
RTVSPost2010PropOp42
 70
     1
102
RTVSPost2010Prop43
 90
        3
102
RTVSPost2010PropOp43
 70
     1
102
RTVSPost2010Prop44ColorIndex
 90
        5
102
RTVSPost2010Prop44ColorRGB
 90
      255
102
RTVSPost2010PropOp44
 70
     1
102
RTVSPost2010Prop45
280
     0
102
RTVSPost2010PropOp45
 70
     1
102
RTVSPost2010Prop46
 90
       50
102
RTVSPost2010PropOp46
 70
     1
102
RTVSPost2010Prop47
 90
       50
102
RTVSPost2010PropOp47
 70
     1
102
RTVSPost2010Prop48
 90
       50
102
RTVSPost2010PropOp48
 70
     1
102
RTVSPost2010Prop49
280
     0
102
RTVSPost2010PropOp49
 70
     1
102
RTVSPost2010Prop50
 90
       50
102
RTVSPost2010PropOp50
 70
     1
102
RTVSPost2010Prop51ColorIndex
 90
      256
102
RTVSPost2010Prop51ColorRGB
 90
-16777216
102
RTVSPost2010PropOp51
 70
     0
102
RTVSPost2010Prop52
140
1.0
102
RTVSPost2010PropOp52
 70
     0
102
RTVSPost2010Prop53
 90
        2
102
RTVSPost2010PropOp53
 70
     1
102
RTVSPost2010Prop54
  1
strokes_ogs.tif
102
RTVSPost2010PropOp54
 70
     1
102
RTVSPost2010Prop55
280
     0
102
RTVSPost2010PropOp55
 70
     1
102
RTVSPost2010Prop56
140
1.0
102
RTVSPost2010PropOp56
 70
     1
102
RTVSPost2010Prop57
140
1.0
102
RTVSPost2010PropOp57
 70
     1
  0
XRECORD
  5
B7
102
{ACAD_REACTORS
330
B6
102
}
330
B6
100
AcDbXrecord
280
     1
102
RTVSPost2010Prop28
280
     0
102
RTVSPost2010PropOp28
 70
     1
102
RTVSPost2010Prop29
280
     1
102
RTVSPost2010PropOp29
 70
     1
102
RTVSPost2010Prop30
280
     1
102
RTVSPost2010PropOp30
 70
     1
102
RTVSPost2010Prop31
280
     0
102
RTVSPost2010PropOp31
 70
     1
102
RTVSPost2010Prop32
280
     0
102
RTVSPost2010PropOp32
 70
     1
102
RTVSPost2010Prop33
280
     0
102
RTVSPost2010PropOp33
 70
     1
102
RTVSPost2010Prop34
280
     0
102
RTVSPost2010PropOp34
 70
     1
102
RTVSPost2010Prop35
280
     0
102
RTVSPost2010PropOp35
 70
     1
102
RTVSPost2010Prop36
280
     0
102
RTVSPost2010PropOp36
 70
     1
102
RTVSPost2010Prop37
 90
       50
102
RTVSPost2010PropOp37
 70
     1
102
RTVSPost2010Prop38
140
0.0
102
RTVSPost2010PropOp38
 70
     1
102
RTVSPost2010Prop39
140
1.0
102
RTVSPost2010PropOp39
 70
     1
102
RTVSPost2010Prop40
 90
        0
102
RTVSPost2010PropOp40
 70
     1
102
RTVSPost2010Prop41ColorIndex
 90
       18
102
RTVSPost2010Prop41ColorRGB
 90
        0
102
RTVSPost2010PropOp41
 70
     1
102
RTVSPost2010Prop42
 90
       50
102
RTVSPost2010PropOp42
 70
     1
102
RTVSPost2010Prop43
 90
        3
102
RTVSPost2010PropOp43
 70
     1
102
RTVSPost2010Prop44ColorIndex
 90
        5
102
RTVSPost2010Prop44ColorRGB
 90
      255
102
RTVSPost2010PropOp44
 70
     1
102
RTVSPost2010Prop45
280
     0
102
RTVSPost2010PropOp45
 70
     1
102
RTVSPost2010Prop46
 90
       50
102
RTVSPost2010PropOp46
 70
     1
102
RTVSPost2010Prop47
 90
       50
102
RTVSPost2010PropOp47
 70
     1
102
RTVSPost2010Prop48
 90
       50
102
RTVSPost2010PropOp48
 70
     1
102
RTVSPost2010Prop49
280
     0
102
RTVSPost2010PropOp49
 70
     1
102
RTVSPost2010Prop50
 90
       50
102
RTVSPost2010PropOp50
 70
     1
102
RTVSPost2010Prop51ColorIndex
 90
      256
102
RTVSPost2010Prop51ColorRGB
 90
-16777216
102
RTVSPost2010PropOp51
 70
     0
102
RTVSPost2010Prop52
140
1.0
102
RTVSPost2010PropOp52
 70
     0
102
RTVSPost2010Prop53
 90
        2
102
RTVSPost2010PropOp53
 70
     1
102
RTVSPost2010Prop54
  1
strokes_ogs.tif
102
RTVSPost2010PropOp54
 70
     1
102
RTVSPost2010Prop55
280
     0
102
RTVSPost2010PropOp55
 70
     1
102
RTVSPost2010Prop56
140
1.0
102
RTVSPost2010PropOp56
 70
     1
102
RTVSPost2010Prop57
140
1.0
102
RTVSPost2010PropOp57
 70
     1
  0
XRECORD
  5
BF
102
{ACAD_REACTORS
330
BE
102
}
330
BE
100
AcDbXrecord
280
     1
102
RTVSPost2010Prop28
280
     0
102
RTVSPost2010PropOp28
 70
     1
102
RTVSPost2010Prop29
280
     1
102
RTVSPost2010PropOp29
 70
     1
102
RTVSPost2010Prop30
280
     1
102
RTVSPost2010PropOp30
 70
     1
102
RTVSPost2010Prop31
280
     0
102
RTVSPost2010PropOp31
 70
     1
102
RTVSPost2010Prop32
280
     0
102
RTVSPost2010PropOp32
 70
     1
102
RTVSPost2010Prop33
280
     0
102
RTVSPost2010PropOp33
 70
     1
102
RTVSPost2010Prop34
280
     0
102
RTVSPost2010PropOp34
 70
     1
102
RTVSPost2010Prop35
280
     0
102
RTVSPost2010PropOp35
 70
     1
102
RTVSPost2010Prop36
280
     0
102
RTVSPost2010PropOp36
 70
     1
102
RTVSPost2010Prop37
 90
       50
102
RTVSPost2010PropOp37
 70
     1
102
RTVSPost2010Prop38
140
0.0
102
RTVSPost2010PropOp38
 70
     1
102
RTVSPost2010Prop39
140
1.0
102
RTVSPost2010PropOp39
 70
     1
102
RTVSPost2010Prop40
 90
        0
102
RTVSPost2010PropOp40
 70
     1
102
RTVSPost2010Prop41ColorIndex
 90
       18
102
RTVSPost2010Prop41ColorRGB
 90
        0
102
RTVSPost2010PropOp41
 70
     1
102
RTVSPost2010Prop42
 90
       50
102
RTVSPost2010PropOp42
 70
     1
102
RTVSPost2010Prop43
 90
        3
102
RTVSPost2010PropOp43
 70
     1
102
RTVSPost2010Prop44ColorIndex
 90
        5
102
RTVSPost2010Prop44ColorRGB
 90
      255
102
RTVSPost2010PropOp44
 70
     1
102
RTVSPost2010Prop45
280
     0
102
RTVSPost2010PropOp45
 70
     1
102
RTVSPost2010Prop46
 90
       50
102
RTVSPost2010PropOp46
 70
     1
102
RTVSPost2010Prop47
 90
       50
102
RTVSPost2010PropOp47
 70
     1
102
RTVSPost2010Prop48
 90
       50
102
RTVSPost2010PropOp48
 70
     1
102
RTVSPost2010Prop49
280
     0
102
RTVSPost2010PropOp49
 70
     1
102
RTVSPost2010Prop50
 90
       50
102
RTVSPost2010PropOp50
 70
     1
102
RTVSPost2010Prop51ColorIndex
 90
      256
102
RTVSPost2010Prop51ColorRGB
 90
-16777216
102
RTVSPost2010PropOp51
 70
     0
102
RTVSPost2010Prop52
140
1.0
102
RTVSPost2010PropOp52
 70
     0
102
RTVSPost2010Prop53
 90
        2
102
RTVSPost2010PropOp53
 70
     1
102
RTVSPost2010Prop54
  1
strokes_ogs.tif
102
RTVSPost2010PropOp54
 70
     1
102
RTVSPost2010Prop55
280
     0
102
RTVSPost2010PropOp55
 70
     1
102
RTVSPost2010Prop56
140
1.0
102
RTVSPost2010PropOp56
 70
     1
102
RTVSPost2010Prop57
140
1.0
102
RTVSPost2010PropOp57
 70
     1
  0
XRECORD
  5
DB
102
{ACAD_REACTORS
330
DA
102
}
330
DA
100
AcDbXrecord
280
     1
102
RTVSPost2010Prop28
280
     0
102
RTVSPost2010PropOp28
 70
     0
102
RTVSPost2010Prop29
280
     1
102
RTVSPost2010PropOp29
 70
     0
102
RTVSPost2010Prop30
280
     1
102
RTVSPost2010PropOp30
 70
     0
102
RTVSPost2010Prop31
280
     0
102
RTVSPost2010PropOp31
 70
     0
102
RTVSPost2010Prop32
280
     0
102
RTVSPost2010PropOp32
 70
     0
102
RTVSPost2010Prop33
280
     0
102
RTVSPost2010PropOp33
 70
     0
102
RTVSPost2010Prop34
280
     0
102
RTVSPost2010PropOp34
 70
     0
102
RTVSPost2010Prop35
280
     0
102
RTVSPost2010PropOp35
 70
     0
102
RTVSPost2010Prop36
280
     0
102
RTVSPost2010PropOp36
 70
     0
102
RTVSPost2010Prop37
 90
       50
102
RTVSPost2010PropOp37
 70
     0
102
RTVSPost2010Prop38
140
0.0
102
RTVSPost2010PropOp38
 70
     0
102
RTVSPost2010Prop39
140
1.0
102
RTVSPost2010PropOp39
 70
     0
102
RTVSPost2010Prop40
 90
        0
102
RTVSPost2010PropOp40
 70
     0
102
RTVSPost2010Prop41ColorIndex
 90
       18
102
RTVSPost2010Prop41ColorRGB
 90
        0
102
RTVSPost2010PropOp41
 70
     0
102
RTVSPost2010Prop42
 90
       50
102
RTVSPost2010PropOp42
 70
     0
102
RTVSPost2010Prop43
 90
        3
102
RTVSPost2010PropOp43
 70
     0
102
RTVSPost2010Prop44ColorIndex
 90
        5
102
RTVSPost2010Prop44ColorRGB
 90
      255
102
RTVSPost2010PropOp44
 70
     0
102
RTVSPost2010Prop45
280
     0
102
RTVSPost2010PropOp45
 70
     0
102
RTVSPost2010Prop46
 90
       50
102
RTVSPost2010PropOp46
 70
     0
102
RTVSPost2010Prop47
 90
       50
102
RTVSPost2010PropOp47
 70
     0
102
RTVSPost2010Prop48
 90
       50
102
RTVSPost2010PropOp48
 70
     0
102
RTVSPost2010Prop49
280
     0
102
RTVSPost2010PropOp49
 70
     0
102
RTVSPost2010Prop50
 90
       50
102
RTVSPost2010PropOp50
 70
     0
102
RTVSPost2010Prop51ColorIndex
 90
      256
102
RTVSPost2010Prop51ColorRGB
 90
-16777216
102
RTVSPost2010PropOp51
 70
     0
102
RTVSPost2010Prop52
140
1.0
102
RTVSPost2010PropOp52
 70
     0
102
RTVSPost2010Prop53
 90
        2
102
RTVSPost2010PropOp53
 70
     0
102
RTVSPost2010Prop54
  1
strokes_ogs.tif
102
RTVSPost2010PropOp54
 70
     0
102
RTVSPost2010Prop55
280
     0
102
RTVSPost2010PropOp55
 70
     0
102
RTVSPost2010Prop56
140
1.0
102
RTVSPost2010PropOp56
 70
     0
102
RTVSPost2010Prop57
140
1.0
102
RTVSPost2010PropOp57
 70
     0
  0
XRECORD
  5
CB
102
{ACAD_REACTORS
330
CA
102
}
330
CA
100
AcDbXrecord
280
     1
102
RTVSPost2010Prop28
280
     0
102
RTVSPost2010PropOp28
 70
     1
102
RTVSPost2010Prop29
280
     1
102
RTVSPost2010PropOp29
 70
     1
102
RTVSPost2010Prop30
280
     1
102
RTVSPost2010PropOp30
 70
     1
102
RTVSPost2010Prop31
280
     0
102
RTVSPost2010PropOp31
 70
     1
102
RTVSPost2010Prop32
280
     0
102
RTVSPost2010PropOp32
 70
     1
102
RTVSPost2010Prop33
280
     0
102
RTVSPost2010PropOp33
 70
     1
102
RTVSPost2010Prop34
280
     0
102
RTVSPost2010PropOp34
 70
     1
102
RTVSPost2010Prop35
280
     0
102
RTVSPost2010PropOp35
 70
     1
102
RTVSPost2010Prop36
280
     0
102
RTVSPost2010PropOp36
 70
     1
102
RTVSPost2010Prop37
 90
       50
102
RTVSPost2010PropOp37
 70
     1
102
RTVSPost2010Prop38
140
0.0
102
RTVSPost2010PropOp38
 70
     1
102
RTVSPost2010Prop39
140
1.0
102
RTVSPost2010PropOp39
 70
     1
102
RTVSPost2010Prop40
 90
        0
102
RTVSPost2010PropOp40
 70
     1
102
RTVSPost2010Prop41ColorIndex
 90
       18
102
RTVSPost2010Prop41ColorRGB
 90
        0
102
RTVSPost2010PropOp41
 70
     1
102
RTVSPost2010Prop42
 90
       50
102
RTVSPost2010PropOp42
 70
     1
102
RTVSPost2010Prop43
 90
        3
102
RTVSPost2010PropOp43
 70
     1
102
RTVSPost2010Prop44ColorIndex
 90
        5
102
RTVSPost2010Prop44ColorRGB
 90
      255
102
RTVSPost2010PropOp44
 70
     1
102
RTVSPost2010Prop45
280
     0
102
RTVSPost2010PropOp45
 70
     1
102
RTVSPost2010Prop46
 90
       50
102
RTVSPost2010PropOp46
 70
     1
102
RTVSPost2010Prop47
 90
       50
102
RTVSPost2010PropOp47
 70
     1
102
RTVSPost2010Prop48
 90
       50
102
RTVSPost2010PropOp48
 70
     1
102
RTVSPost2010Prop49
280
     0
102
RTVSPost2010PropOp49
 70
     1
102
RTVSPost2010Prop50
 90
       50
102
RTVSPost2010PropOp50
 70
     1
102
RTVSPost2010Prop51ColorIndex
 90
      256
102
RTVSPost2010Prop51ColorRGB
 90
-16777216
102
RTVSPost2010PropOp51
 70
     0
102
RTVSPost2010Prop52
140
1.0
102
RTVSPost2010PropOp52
 70
     0
102
RTVSPost2010Prop53
 90
        2
102
RTVSPost2010PropOp53
 70
     1
102
RTVSPost2010Prop54
  1
strokes_ogs.tif
102
RTVSPost2010PropOp54
 70
     1
102
RTVSPost2010Prop55
280
     0
102
RTVSPost2010PropOp55
 70
     1
102
RTVSPost2010Prop56
140
1.0
102
RTVSPost2010PropOp56
 70
     1
102
RTVSPost2010Prop57
140
1.0
102
RTVSPost2010PropOp57
 70
     1
  0
XRECORD
  5
DD
102
{ACAD_REACTORS
330
DC
102
}
330
DC
100
AcDbXrecord
280
     1
102
RTVSPost2010Prop28
280
     0
102
RTVSPost2010PropOp28
 70
     0
102
RTVSPost2010Prop29
280
     1
102
RTVSPost2010PropOp29
 70
     0
102
RTVSPost2010Prop30
280
     1
102
RTVSPost2010PropOp30
 70
     0
102
RTVSPost2010Prop31
280
     0
102
RTVSPost2010PropOp31
 70
     0
102
RTVSPost2010Prop32
280
     0
102
RTVSPost2010PropOp32
 70
     0
102
RTVSPost2010Prop33
280
     0
102
RTVSPost2010PropOp33
 70
     0
102
RTVSPost2010Prop34
280
     0
102
RTVSPost2010PropOp34
 70
     0
102
RTVSPost2010Prop35
280
     0
102
RTVSPost2010PropOp35
 70
     0
102
RTVSPost2010Prop36
280
     0
102
RTVSPost2010PropOp36
 70
     0
102
RTVSPost2010Prop37
 90
       50
102
RTVSPost2010PropOp37
 70
     0
102
RTVSPost2010Prop38
140
0.0
102
RTVSPost2010PropOp38
 70
     0
102
RTVSPost2010Prop39
140
1.0
102
RTVSPost2010PropOp39
 70
     0
102
RTVSPost2010Prop40
 90
        0
102
RTVSPost2010PropOp40
 70
     0
102
RTVSPost2010Prop41ColorIndex
 90
       18
102
RTVSPost2010Prop41ColorRGB
 90
        0
102
RTVSPost2010PropOp41
 70
     0
102
RTVSPost2010Prop42
 90
       50
102
RTVSPost2010PropOp42
 70
     0
102
RTVSPost2010Prop43
 90
        3
102
RTVSPost2010PropOp43
 70
     0
102
RTVSPost2010Prop44ColorIndex
 90
        5
102
RTVSPost2010Prop44ColorRGB
 90
      255
102
RTVSPost2010PropOp44
 70
     0
102
RTVSPost2010Prop45
280
     0
102
RTVSPost2010PropOp45
 70
     0
102
RTVSPost2010Prop46
 90
       50
102
RTVSPost2010PropOp46
 70
     0
102
RTVSPost2010Prop47
 90
       50
102
RTVSPost2010PropOp47
 70
     0
102
RTVSPost2010Prop48
 90
       50
102
RTVSPost2010PropOp48
 70
     0
102
RTVSPost2010Prop49
280
     0
102
RTVSPost2010PropOp49
 70
     0
102
RTVSPost2010Prop50
 90
       50
102
RTVSPost2010PropOp50
 70
     0
102
RTVSPost2010Prop51ColorIndex
 90
      256
102
RTVSPost2010Prop51ColorRGB
 90
-16777216
102
RTVSPost2010PropOp51
 70
     0
102
RTVSPost2010Prop52
140
1.0
102
RTVSPost2010PropOp52
 70
     0
102
RTVSPost2010Prop53
 90
        2
102
RTVSPost2010PropOp53
 70
     0
102
RTVSPost2010Prop54
  1
strokes_ogs.tif
102
RTVSPost2010PropOp54
 70
     0
102
RTVSPost2010Prop55
280
     0
102
RTVSPost2010PropOp55
 70
     0
102
RTVSPost2010Prop56
140
1.0
102
RTVSPost2010PropOp56
 70
     0
102
RTVSPost2010Prop57
140
1.0
102
RTVSPost2010PropOp57
 70
     0
  0
XRECORD
  5
C3
102
{ACAD_REACTORS
330
C2
102
}
330
C2
100
AcDbXrecord
280
     1
102
RTVSPost2010Prop28
280
     0
102
RTVSPost2010PropOp28
 70
     1
102
RTVSPost2010Prop29
280
     1
102
RTVSPost2010PropOp29
 70
     1
102
RTVSPost2010Prop30
280
     1
102
RTVSPost2010PropOp30
 70
     1
102
RTVSPost2010Prop31
280
     0
102
RTVSPost2010PropOp31
 70
     1
102
RTVSPost2010Prop32
280
     0
102
RTVSPost2010PropOp32
 70
     1
102
RTVSPost2010Prop33
280
     0
102
RTVSPost2010PropOp33
 70
     1
102
RTVSPost2010Prop34
280
     0
102
RTVSPost2010PropOp34
 70
     1
102
RTVSPost2010Prop35
280
     0
102
RTVSPost2010PropOp35
 70
     1
102
RTVSPost2010Prop36
280
     0
102
RTVSPost2010PropOp36
 70
     1
102
RTVSPost2010Prop37
 90
       50
102
RTVSPost2010PropOp37
 70
     1
102
RTVSPost2010Prop38
140
0.0
102
RTVSPost2010PropOp38
 70
     1
102
RTVSPost2010Prop39
140
1.0
102
RTVSPost2010PropOp39
 70
     1
102
RTVSPost2010Prop40
 90
        0
102
RTVSPost2010PropOp40
 70
     1
102
RTVSPost2010Prop41ColorIndex
 90
       18
102
RTVSPost2010Prop41ColorRGB
 90
        0
102
RTVSPost2010PropOp41
 70
     1
102
RTVSPost2010Prop42
 90
       50
102
RTVSPost2010PropOp42
 70
     1
102
RTVSPost2010Prop43
 90
        3
102
RTVSPost2010PropOp43
 70
     1
102
RTVSPost2010Prop44ColorIndex
 90
        5
102
RTVSPost2010Prop44ColorRGB
 90
      255
102
RTVSPost2010PropOp44
 70
     1
102
RTVSPost2010Prop45
280
     0
102
RTVSPost2010PropOp45
 70
     1
102
RTVSPost2010Prop46
 90
       50
102
RTVSPost2010PropOp46
 70
     1
102
RTVSPost2010Prop47
 90
       50
102
RTVSPost2010PropOp47
 70
     1
102
RTVSPost2010Prop48
 90
       50
102
RTVSPost2010PropOp48
 70
     1
102
RTVSPost2010Prop49
280
     0
102
RTVSPost2010PropOp49
 70
     1
102
RTVSPost2010Prop50
 90
       50
102
RTVSPost2010PropOp50
 70
     1
102
RTVSPost2010Prop51ColorIndex
 90
      256
102
RTVSPost2010Prop51ColorRGB
 90
-16777216
102
RTVSPost2010PropOp51
 70
     0
102
RTVSPost2010Prop52
140
1.0
102
RTVSPost2010PropOp52
 70
     0
102
RTVSPost2010Prop53
 90
        2
102
RTVSPost2010PropOp53
 70
     1
102
RTVSPost2010Prop54
  1
strokes_ogs.tif
102
RTVSPost2010PropOp54
 70
     1
102
RTVSPost2010Prop55
280
     0
102
RTVSPost2010PropOp55
 70
     1
102
RTVSPost2010Prop56
140
1.0
102
RTVSPost2010PropOp56
 70
     1
102
RTVSPost2010Prop57
140
1.0
102
RTVSPost2010PropOp57
 70
     1
  0
XRECORD
  5
D9
102
{ACAD_REACTORS
330
D8
102
}
330
D8
100
AcDbXrecord
280
     1
102
RTVSPost2010Prop28
280
     0
102
RTVSPost2010PropOp28
 70
     1
102
RTVSPost2010Prop29
280
     1
102
RTVSPost2010PropOp29
 70
     1
102
RTVSPost2010Prop30
280
     1
102
RTVSPost2010PropOp30
 70
     1
102
RTVSPost2010Prop31
280
     0
102
RTVSPost2010PropOp31
 70
     1
102
RTVSPost2010Prop32
280
     0
102
RTVSPost2010PropOp32
 70
     1
102
RTVSPost2010Prop33
280
     0
102
RTVSPost2010PropOp33
 70
     1
102
RTVSPost2010Prop34
280
     0
102
RTVSPost2010PropOp34
 70
     1
102
RTVSPost2010Prop35
280
     0
102
RTVSPost2010PropOp35
 70
     1
102
RTVSPost2010Prop36
280
     0
102
RTVSPost2010PropOp36
 70
     1
102
RTVSPost2010Prop37
 90
       50
102
RTVSPost2010PropOp37
 70
     1
102
RTVSPost2010Prop38
140
0.0
102
RTVSPost2010PropOp38
 70
     1
102
RTVSPost2010Prop39
140
1.0
102
RTVSPost2010PropOp39
 70
     1
102
RTVSPost2010Prop40
 90
        0
102
RTVSPost2010PropOp40
 70
     1
102
RTVSPost2010Prop41ColorIndex
 90
       18
102
RTVSPost2010Prop41ColorRGB
 90
        0
102
RTVSPost2010PropOp41
 70
     1
102
RTVSPost2010Prop42
 90
       50
102
RTVSPost2010PropOp42
 70
     1
102
RTVSPost2010Prop43
 90
        3
102
RTVSPost2010PropOp43
 70
     1
102
RTVSPost2010Prop44ColorIndex
 90
        5
102
RTVSPost2010Prop44ColorRGB
 90
      255
102
RTVSPost2010PropOp44
 70
     1
102
RTVSPost2010Prop45
280
     0
102
RTVSPost2010PropOp45
 70
     1
102
RTVSPost2010Prop46
 90
       50
102
RTVSPost2010PropOp46
 70
     1
102
RTVSPost2010Prop47
 90
       50
102
RTVSPost2010PropOp47
 70
     1
102
RTVSPost2010Prop48
 90
       50
102
RTVSPost2010PropOp48
 70
     1
102
RTVSPost2010Prop49
280
     0
102
RTVSPost2010PropOp49
 70
     1
102
RTVSPost2010Prop50
 90
       50
102
RTVSPost2010PropOp50
 70
     1
102
RTVSPost2010Prop51ColorIndex
 90
      256
102
RTVSPost2010Prop51ColorRGB
 90
-16777216
102
RTVSPost2010PropOp51
 70
     0
102
RTVSPost2010Prop52
140
1.0
102
RTVSPost2010PropOp52
 70
     0
102
RTVSPost2010Prop53
 90
        2
102
RTVSPost2010PropOp53
 70
     1
102
RTVSPost2010Prop54
  1
strokes_ogs.tif
102
RTVSPost2010PropOp54
 70
     1
102
RTVSPost2010Prop55
280
     0
102
RTVSPost2010PropOp55
 70
     1
102
RTVSPost2010Prop56
140
1.0
102
RTVSPost2010PropOp56
 70
     1
102
RTVSPost2010Prop57
140
1.0
102
RTVSPost2010PropOp57
 70
     1
  0
XRECORD
  5
D7
102
{ACAD_REACTORS
330
D6
102
}
330
D6
100
AcDbXrecord
280
     1
102
RTVSPost2010Prop28
280
     0
102
RTVSPost2010PropOp28
 70
     1
102
RTVSPost2010Prop29
280
     1
102
RTVSPost2010PropOp29
 70
     1
102
RTVSPost2010Prop30
280
     1
102
RTVSPost2010PropOp30
 70
     1
102
RTVSPost2010Prop31
280
     0
102
RTVSPost2010PropOp31
 70
     1
102
RTVSPost2010Prop32
280
     0
102
RTVSPost2010PropOp32
 70
     1
102
RTVSPost2010Prop33
280
     0
102
RTVSPost2010PropOp33
 70
     1
102
RTVSPost2010Prop34
280
     0
102
RTVSPost2010PropOp34
 70
     1
102
RTVSPost2010Prop35
280
     0
102
RTVSPost2010PropOp35
 70
     1
102
RTVSPost2010Prop36
280
     0
102
RTVSPost2010PropOp36
 70
     1
102
RTVSPost2010Prop37
 90
       50
102
RTVSPost2010PropOp37
 70
     1
102
RTVSPost2010Prop38
140
0.0
102
RTVSPost2010PropOp38
 70
     1
102
RTVSPost2010Prop39
140
1.0
102
RTVSPost2010PropOp39
 70
     1
102
RTVSPost2010Prop40
 90
        0
102
RTVSPost2010PropOp40
 70
     1
102
RTVSPost2010Prop41ColorIndex
 90
       18
102
RTVSPost2010Prop41ColorRGB
 90
        0
102
RTVSPost2010PropOp41
 70
     1
102
RTVSPost2010Prop42
 90
       50
102
RTVSPost2010PropOp42
 70
     1
102
RTVSPost2010Prop43
 90
        3
102
RTVSPost2010PropOp43
 70
     1
102
RTVSPost2010Prop44ColorIndex
 90
        5
102
RTVSPost2010Prop44ColorRGB
 90
      255
102
RTVSPost2010PropOp44
 70
     1
102
RTVSPost2010Prop45
280
     0
102
RTVSPost2010PropOp45
 70
     1
102
RTVSPost2010Prop46
 90
       50
102
RTVSPost2010PropOp46
 70
     1
102
RTVSPost2010Prop47
 90
       50
102
RTVSPost2010PropOp47
 70
     1
102
RTVSPost2010Prop48
 90
       50
102
RTVSPost2010PropOp48
 70
     1
102
RTVSPost2010Prop49
280
     0
102
RTVSPost2010PropOp49
 70
     1
102
RTVSPost2010Prop50
 90
       50
102
RTVSPost2010PropOp50
 70
     1
102
RTVSPost2010Prop51ColorIndex
 90
      256
102
RTVSPost2010Prop51ColorRGB
 90
-16777216
102
RTVSPost2010PropOp51
 70
     0
102
RTVSPost2010Prop52
140
1.0
102
RTVSPost2010PropOp52
 70
     0
102
RTVSPost2010Prop53
 90
        2
102
RTVSPost2010PropOp53
 70
     1
102
RTVSPost2010Prop54
  1
strokes_ogs.tif
102
RTVSPost2010PropOp54
 70
     1
102
RTVSPost2010Prop55
280
     0
102
RTVSPost2010PropOp55
 70
     1
102
RTVSPost2010Prop56
140
1.0
102
RTVSPost2010PropOp56
 70
     1
102
RTVSPost2010Prop57
140
1.0
102
RTVSPost2010PropOp57
 70
     1
  0
XRECORD
  5
D1
102
{ACAD_REACTORS
330
D0
102
}
330
D0
100
AcDbXrecord
280
     1
102
RTVSPost2010Prop28
280
     0
102
RTVSPost2010PropOp28
 70
     1
102
RTVSPost2010Prop29
280
     1
102
RTVSPost2010PropOp29
 70
     1
102
RTVSPost2010Prop30
280
     1
102
RTVSPost2010PropOp30
 70
     1
102
RTVSPost2010Prop31
280
     0
102
RTVSPost2010PropOp31
 70
     1
102
RTVSPost2010Prop32
280
     0
102
RTVSPost2010PropOp32
 70
     1
102
RTVSPost2010Prop33
280
     0
102
RTVSPost2010PropOp33
 70
     1
102
RTVSPost2010Prop34
280
     0
102
RTVSPost2010PropOp34
 70
     1
102
RTVSPost2010Prop35
280
     0
102
RTVSPost2010PropOp35
 70
     1
102
RTVSPost2010Prop36
280
     0
102
RTVSPost2010PropOp36
 70
     1
102
RTVSPost2010Prop37
 90
       50
102
RTVSPost2010PropOp37
 70
     1
102
RTVSPost2010Prop38
140
0.0
102
RTVSPost2010PropOp38
 70
     1
102
RTVSPost2010Prop39
140
1.0
102
RTVSPost2010PropOp39
 70
     1
102
RTVSPost2010Prop40
 90
        0
102
RTVSPost2010PropOp40
 70
     1
102
RTVSPost2010Prop41ColorIndex
 90
       18
102
RTVSPost2010Prop41ColorRGB
 90
        0
102
RTVSPost2010PropOp41
 70
     1
102
RTVSPost2010Prop42
 90
       50
102
RTVSPost2010PropOp42
 70
     1
102
RTVSPost2010Prop43
 90
        3
102
RTVSPost2010PropOp43
 70
     1
102
RTVSPost2010Prop44ColorIndex
 90
        5
102
RTVSPost2010Prop44ColorRGB
 90
      255
102
RTVSPost2010PropOp44
 70
     1
102
RTVSPost2010Prop45
280
     0
102
RTVSPost2010PropOp45
 70
     1
102
RTVSPost2010Prop46
 90
       50
102
RTVSPost2010PropOp46
 70
     1
102
RTVSPost2010Prop47
 90
       50
102
RTVSPost2010PropOp47
 70
     1
102
RTVSPost2010Prop48
 90
       50
102
RTVSPost2010PropOp48
 70
     1
102
RTVSPost2010Prop49
280
     0
102
RTVSPost2010PropOp49
 70
     1
102
RTVSPost2010Prop50
 90
       50
102
RTVSPost2010PropOp50
 70
     1
102
RTVSPost2010Prop51ColorIndex
 90
      256
102
RTVSPost2010Prop51ColorRGB
 90
-16777216
102
RTVSPost2010PropOp51
 70
     0
102
RTVSPost2010Prop52
140
1.0
102
RTVSPost2010PropOp52
 70
     0
102
RTVSPost2010Prop53
 90
        2
102
RTVSPost2010PropOp53
 70
     1
102
RTVSPost2010Prop54
  1
strokes_ogs.tif
102
RTVSPost2010PropOp54
 70
     1
102
RTVSPost2010Prop55
280
     0
102
RTVSPost2010PropOp55
 70
     1
102
RTVSPost2010Prop56
140
1.0
102
RTVSPost2010PropOp56
 70
     1
102
RTVSPost2010Prop57
140
1.0
102
RTVSPost2010PropOp57
 70
     1
  0
XRECORD
  5
D3
102
{ACAD_REACTORS
330
D2
102
}
330
D2
100
AcDbXrecord
280
     1
102
RTVSPost2010Prop28
280
     0
102
RTVSPost2010PropOp28
 70
     1
102
RTVSPost2010Prop29
280
     1
102
RTVSPost2010PropOp29
 70
     1
102
RTVSPost2010Prop30
280
     1
102
RTVSPost2010PropOp30
 70
     1
102
RTVSPost2010Prop31
280
     0
102
RTVSPost2010PropOp31
 70
     1
102
RTVSPost2010Prop32
280
     0
102
RTVSPost2010PropOp32
 70
     1
102
RTVSPost2010Prop33
280
     0
102
RTVSPost2010PropOp33
 70
     1
102
RTVSPost2010Prop34
280
     0
102
RTVSPost2010PropOp34
 70
     1
102
RTVSPost2010Prop35
280
     0
102
RTVSPost2010PropOp35
 70
     1
102
RTVSPost2010Prop36
280
     0
102
RTVSPost2010PropOp36
 70
     1
102
RTVSPost2010Prop37
 90
       50
102
RTVSPost2010PropOp37
 70
     1
102
RTVSPost2010Prop38
140
0.0
102
RTVSPost2010PropOp38
 70
     1
102
RTVSPost2010Prop39
140
1.0
102
RTVSPost2010PropOp39
 70
     1
102
RTVSPost2010Prop40
 90
        0
102
RTVSPost2010PropOp40
 70
     1
102
RTVSPost2010Prop41ColorIndex
 90
       18
102
RTVSPost2010Prop41ColorRGB
 90
        0
102
RTVSPost2010PropOp41
 70
     1
102
RTVSPost2010Prop42
 90
       50
102
RTVSPost2010PropOp42
 70
     1
102
RTVSPost2010Prop43
 90
        3
102
RTVSPost2010PropOp43
 70
     1
102
RTVSPost2010Prop44ColorIndex
 90
        5
102
RTVSPost2010Prop44ColorRGB
 90
      255
102
RTVSPost2010PropOp44
 70
     1
102
RTVSPost2010Prop45
280
     0
102
RTVSPost2010PropOp45
 70
     1
102
RTVSPost2010Prop46
 90
       50
102
RTVSPost2010PropOp46
 70
     1
102
RTVSPost2010Prop47
 90
       50
102
RTVSPost2010PropOp47
 70
     1
102
RTVSPost2010Prop48
 90
       50
102
RTVSPost2010PropOp48
 70
     1
102
RTVSPost2010Prop49
280
     0
102
RTVSPost2010PropOp49
 70
     1
102
RTVSPost2010Prop50
 90
       50
102
RTVSPost2010PropOp50
 70
     1
102
RTVSPost2010Prop51ColorIndex
 90
      256
102
RTVSPost2010Prop51ColorRGB
 90
-16777216
102
RTVSPost2010PropOp51
 70
     0
102
RTVSPost2010Prop52
140
1.0
102
RTVSPost2010PropOp52
 70
     0
102
RTVSPost2010Prop53
 90
        2
102
RTVSPost2010PropOp53
 70
     1
102
RTVSPost2010Prop54
  1
strokes_ogs.tif
102
RTVSPost2010PropOp54
 70
     1
102
RTVSPost2010Prop55
280
     0
102
RTVSPost2010PropOp55
 70
     1
102
RTVSPost2010Prop56
140
1.0
102
RTVSPost2010PropOp56
 70
     1
102
RTVSPost2010Prop57
140
1.0
102
RTVSPost2010PropOp57
 70
     1
  0
XRECORD
  5
C9
102
{ACAD_REACTORS
330
C8
102
}
330
C8
100
AcDbXrecord
280
     1
102
RTVSPost2010Prop28
280
     0
102
RTVSPost2010PropOp28
 70
     1
102
RTVSPost2010Prop29
280
     1
102
RTVSPost2010PropOp29
 70
     1
102
RTVSPost2010Prop30
280
     1
102
RTVSPost2010PropOp30
 70
     1
102
RTVSPost2010Prop31
280
     0
102
RTVSPost2010PropOp31
 70
     1
102
RTVSPost2010Prop32
280
     0
102
RTVSPost2010PropOp32
 70
     1
102
RTVSPost2010Prop33
280
     0
102
RTVSPost2010PropOp33
 70
     1
102
RTVSPost2010Prop34
280
     0
102
RTVSPost2010PropOp34
 70
     1
102
RTVSPost2010Prop35
280
     0
102
RTVSPost2010PropOp35
 70
     1
102
RTVSPost2010Prop36
280
     0
102
RTVSPost2010PropOp36
 70
     1
102
RTVSPost2010Prop37
 90
       50
102
RTVSPost2010PropOp37
 70
     1
102
RTVSPost2010Prop38
140
0.0
102
RTVSPost2010PropOp38
 70
     1
102
RTVSPost2010Prop39
140
1.0
102
RTVSPost2010PropOp39
 70
     1
102
RTVSPost2010Prop40
 90
        0
102
RTVSPost2010PropOp40
 70
     1
102
RTVSPost2010Prop41ColorIndex
 90
       18
102
RTVSPost2010Prop41ColorRGB
 90
        0
102
RTVSPost2010PropOp41
 70
     1
102
RTVSPost2010Prop42
 90
       50
102
RTVSPost2010PropOp42
 70
     1
102
RTVSPost2010Prop43
 90
        3
102
RTVSPost2010PropOp43
 70
     1
102
RTVSPost2010Prop44ColorIndex
 90
        5
102
RTVSPost2010Prop44ColorRGB
 90
      255
102
RTVSPost2010PropOp44
 70
     1
102
RTVSPost2010Prop45
280
     0
102
RTVSPost2010PropOp45
 70
     1
102
RTVSPost2010Prop46
 90
       50
102
RTVSPost2010PropOp46
 70
     1
102
RTVSPost2010Prop47
 90
       50
102
RTVSPost2010PropOp47
 70
     1
102
RTVSPost2010Prop48
 90
       50
102
RTVSPost2010PropOp48
 70
     1
102
RTVSPost2010Prop49
280
     0
102
RTVSPost2010PropOp49
 70
     1
102
RTVSPost2010Prop50
 90
       50
102
RTVSPost2010PropOp50
 70
     1
102
RTVSPost2010Prop51ColorIndex
 90
      256
102
RTVSPost2010Prop51ColorRGB
 90
-16777216
102
RTVSPost2010PropOp51
 70
     0
102
RTVSPost2010Prop52
140
1.0
102
RTVSPost2010PropOp52
 70
     0
102
RTVSPost2010Prop53
 90
        2
102
RTVSPost2010PropOp53
 70
     1
102
RTVSPost2010Prop54
  1
strokes_ogs.tif
102
RTVSPost2010PropOp54
 70
     1
102
RTVSPost2010Prop55
280
     0
102
RTVSPost2010PropOp55
 70
     1
102
RTVSPost2010Prop56
140
1.0
102
RTVSPost2010PropOp56
 70
     1
102
RTVSPost2010Prop57
140
1.0
102
RTVSPost2010PropOp57
 70
     1
  0
XRECORD
  5
BD
102
{ACAD_REACTORS
330
BC
102
}
330
BC
100
AcDbXrecord
280
     1
102
RTVSPost2010Prop28
280
     0
102
RTVSPost2010PropOp28
 70
     1
102
RTVSPost2010Prop29
280
     1
102
RTVSPost2010PropOp29
 70
     1
102
RTVSPost2010Prop30
280
     1
102
RTVSPost2010PropOp30
 70
     1
102
RTVSPost2010Prop31
280
     0
102
RTVSPost2010PropOp31
 70
     1
102
RTVSPost2010Prop32
280
     0
102
RTVSPost2010PropOp32
 70
     1
102
RTVSPost2010Prop33
280
     0
102
RTVSPost2010PropOp33
 70
     1
102
RTVSPost2010Prop34
280
     0
102
RTVSPost2010PropOp34
 70
     1
102
RTVSPost2010Prop35
280
     0
102
RTVSPost2010PropOp35
 70
     1
102
RTVSPost2010Prop36
280
     0
102
RTVSPost2010PropOp36
 70
     1
102
RTVSPost2010Prop37
 90
       50
102
RTVSPost2010PropOp37
 70
     1
102
RTVSPost2010Prop38
140
0.0
102
RTVSPost2010PropOp38
 70
     1
102
RTVSPost2010Prop39
140
1.0
102
RTVSPost2010PropOp39
 70
     1
102
RTVSPost2010Prop40
 90
        0
102
RTVSPost2010PropOp40
 70
     1
102
RTVSPost2010Prop41ColorIndex
 90
       18
102
RTVSPost2010Prop41ColorRGB
 90
        0
102
RTVSPost2010PropOp41
 70
     1
102
RTVSPost2010Prop42
 90
       50
102
RTVSPost2010PropOp42
 70
     1
102
RTVSPost2010Prop43
 90
        3
102
RTVSPost2010PropOp43
 70
     1
102
RTVSPost2010Prop44ColorIndex
 90
        5
102
RTVSPost2010Prop44ColorRGB
 90
      255
102
RTVSPost2010PropOp44
 70
     1
102
RTVSPost2010Prop45
280
     0
102
RTVSPost2010PropOp45
 70
     1
102
RTVSPost2010Prop46
 90
       50
102
RTVSPost2010PropOp46
 70
     1
102
RTVSPost2010Prop47
 90
       50
102
RTVSPost2010PropOp47
 70
     1
102
RTVSPost2010Prop48
 90
       50
102
RTVSPost2010PropOp48
 70
     1
102
RTVSPost2010Prop49
280
     0
102
RTVSPost2010PropOp49
 70
     1
102
RTVSPost2010Prop50
 90
       50
102
RTVSPost2010PropOp50
 70
     1
102
RTVSPost2010Prop51ColorIndex
 90
      256
102
RTVSPost2010Prop51ColorRGB
 90
-16777216
102
RTVSPost2010PropOp51
 70
     0
102
RTVSPost2010Prop52
140
1.0
102
RTVSPost2010PropOp52
 70
     0
102
RTVSPost2010Prop53
 90
        2
102
RTVSPost2010PropOp53
 70
     1
102
RTVSPost2010Prop54
  1
strokes_ogs.tif
102
RTVSPost2010PropOp54
 70
     1
102
RTVSPost2010Prop55
280
     0
102
RTVSPost2010PropOp55
 70
     1
102
RTVSPost2010Prop56
140
1.0
102
RTVSPost2010PropOp56
 70
     1
102
RTVSPost2010Prop57
140
1.0
102
RTVSPost2010PropOp57
 70
     1
  0
XRECORD
  5
D5
102
{ACAD_REACTORS
330
D4
102
}
330
D4
100
AcDbXrecord
280
     1
102
RTVSPost2010Prop28
280
     0
102
RTVSPost2010PropOp28
 70
     1
102
RTVSPost2010Prop29
280
     1
102
RTVSPost2010PropOp29
 70
     1
102
RTVSPost2010Prop30
280
     1
102
RTVSPost2010PropOp30
 70
     1
102
RTVSPost2010Prop31
280
     0
102
RTVSPost2010PropOp31
 70
     1
102
RTVSPost2010Prop32
280
     0
102
RTVSPost2010PropOp32
 70
     1
102
RTVSPost2010Prop33
280
     0
102
RTVSPost2010PropOp33
 70
     1
102
RTVSPost2010Prop34
280
     0
102
RTVSPost2010PropOp34
 70
     1
102
RTVSPost2010Prop35
280
     0
102
RTVSPost2010PropOp35
 70
     1
102
RTVSPost2010Prop36
280
     0
102
RTVSPost2010PropOp36
 70
     1
102
RTVSPost2010Prop37
 90
       50
102
RTVSPost2010PropOp37
 70
     1
102
RTVSPost2010Prop38
140
0.0
102
RTVSPost2010PropOp38
 70
     1
102
RTVSPost2010Prop39
140
1.0
102
RTVSPost2010PropOp39
 70
     1
102
RTVSPost2010Prop40
 90
        0
102
RTVSPost2010PropOp40
 70
     1
102
RTVSPost2010Prop41ColorIndex
 90
       18
102
RTVSPost2010Prop41ColorRGB
 90
        0
102
RTVSPost2010PropOp41
 70
     1
102
RTVSPost2010Prop42
 90
       50
102
RTVSPost2010PropOp42
 70
     1
102
RTVSPost2010Prop43
 90
        3
102
RTVSPost2010PropOp43
 70
     1
102
RTVSPost2010Prop44ColorIndex
 90
        5
102
RTVSPost2010Prop44ColorRGB
 90
      255
102
RTVSPost2010PropOp44
 70
     1
102
RTVSPost2010Prop45
280
     0
102
RTVSPost2010PropOp45
 70
     1
102
RTVSPost2010Prop46
 90
       50
102
RTVSPost2010PropOp46
 70
     1
102
RTVSPost2010Prop47
 90
       50
102
RTVSPost2010PropOp47
 70
     1
102
RTVSPost2010Prop48
 90
       50
102
RTVSPost2010PropOp48
 70
     1
102
RTVSPost2010Prop49
280
     0
102
RTVSPost2010PropOp49
 70
     1
102
RTVSPost2010Prop50
 90
       50
102
RTVSPost2010PropOp50
 70
     1
102
RTVSPost2010Prop51ColorIndex
 90
      256
102
RTVSPost2010Prop51ColorRGB
 90
-16777216
102
RTVSPost2010PropOp51
 70
     0
102
RTVSPost2010Prop52
140
1.0
102
RTVSPost2010PropOp52
 70
     0
102
RTVSPost2010Prop53
 90
        2
102
RTVSPost2010PropOp53
 70
     1
102
RTVSPost2010Prop54
  1
strokes_ogs.tif
102
RTVSPost2010PropOp54
 70
     1
102
RTVSPost2010Prop55
280
     0
102
RTVSPost2010PropOp55
 70
     1
102
RTVSPost2010Prop56
140
1.0
102
RTVSPost2010PropOp56
 70
     1
102
RTVSPost2010Prop57
140
1.0
102
RTVSPost2010PropOp57
 70
     1
  0
ENDSEC
  0
EOF
